Oops, an error
Loading. Please wait.

Simpsons Theme Bass Tab

version 2
version 2

Whole song

Interactive

3,997 views 3 this week
7 commentsread comments
1 2 3 4 5
please rate
add to favorites
launch autoscroll
font size
0
reset
guitar tuner
Autoscroll
slow
fast
+/-
esc
set tempo
stop
Help us to improve Ultimate-Guitar.com Take our survey!
×
Author
Difficulty
intermediate
                  The Simpsons Theme                    


Bass
     W                   W                 
G||-------------------|-------------------|
D||-------------------|-------------------|
A||-------------------|-------------------|
E||-------------------|-------------------|


  E  S S S S S S S S S S S S S S  
---------------------------------|
---------------------------------|
--3--3-3-3-3-3-3-3-3-3-3-3-3-3-3-|
---------------------------------|


  S S S S S S S S S S S S S S S S  
----------------------------------|
----------------------------------|
--3-3-3-3-3-3-3-3-3-3-3-3-3-3-3-3-|
----------------------------------|


  S S S S S S S S H           Q    E  E  H         
---------------------------|----------------------|
---------------------------|----------4-----------|
--3-3-3-3-3-3-3-3-3--------|--3-------------------|
---------------------------|----------------------|


  Q    E  E  E  E  E  E     Q    E  E   
-------------------------|-------------|
----------4-----4-----4--|----------4--|
--3----------------------|--3----------|
-------------------------|-------------|


  Q    E  E  E  E  E  E     Q    E  E  H         
-------------------------|----------------------|
----------4-----4-----4--|----------4-----------|
--3----------------------|--3-------------------|
-------------------------|----------------------|


  Q    E  E  E  E  E  E     Q    E  E  H         
-------------------------|----------------------|
----------4-----4-----4--|----------4-----------|
--3----------------------|--3-------------------|
-------------------------|----------------------|


  Q    E  E  H           Q    E  E  E  E  E  E   
----------------------|-------------------------|
----------------------|-------------------------|
--2-------------------|--2----------------------|
----------1-----------|----------1-----1-----1--|


  Q    E  E  H           Q    E  E  E  E  E  E   
----------------------|-------------------------|
----------------------|-------------------------|
--2-------------------|--2----------------------|
----------1-----------|----------1-----1-----1--|


  Q    E  E  H           Q    E  E  E  E  E  E   
----------------------|-------------------------|
----------------------|-------------------------|
--2-------------------|--2----------------------|
----------1-----------|----------1-----1-----1--|


  Q    E  E  H           Q    E  E  E  E  Q     
----------------------|------------------------|
----------------------|------------------------|
--2-------------------|--2---------------------|
----------1-----------|----------1-----1-------|


  Q    Q    Q    Q       Q    Q    Q    Q     
----------------------|----------------------|
----------------------|----------------------|
-------2---------2----|-------2---------2----|
--0---------0---------|--0---------0---------|


  Q    Q    Q    Q       Q    Q    Q    Q     
----------------------|----------------------|
----------------------|-------3---------3----|
-------2---------2----|--1---------1---------|
--0---------0---------|----------------------|


  Q    Q    Q    Q       Q    Q    Q    Q     
----------------------|----------------------|
-------3---------3----|--2---------2---------|
--1---------1---------|-------1---------1----|
----------------------|----------------------|


  Q    Q    Q    Q       Q    Q    Q    Q     
--5-------------------|--5-------------------|
------------5---------|------------5---------|
--3-------------------|--3-------------------|
------------3---------|------------3---------|


  E  E  E  E  H           W                 
-----------------------|-------------------|
--4--4--4--2--L--------|-------------------|
-----------------------|-------------------|
--2--2--2--0--L--------|-------------------|


  W                   W                 
-------------------|-------------------|
-------------------|-------------------|
-------------------|-------------------|
-------------------|-------------------|


  Q    Q    Q    Q       Q    Q    Q    Q     
----------------------|----------------------|
--2---------2---------|--2---------2---------|
-------1---------1----|-------1---------1----|
----------------------|----------------------|


  Q.     E  H           Q.     E  E  E  E  E   
--4------------------|--4---------------------|
---------2-----------|---------2-----L-----L--|
--2------------------|--2---------------------|
---------0-----------|---------0-----0-----0--|


  Q.     E  H           Q.     E  E  E  Q     
--4------------------|--4--------------------|
---------2-----------|---------2-----L-------|
--2------------------|--2--------------------|
---------0-----------|---------0-----0-------|


  Q    E  E  H           Q.     E  E  E  Q     
--4-------------------|--4--------------------|
----------2-----------|---------2-----2-------|
--2-------------------|--2--------------------|
----------0-----------|---------0-----0-------|


  Q    E  E  H           Q.     E  E  E  Q     
--4-------------------|--4--------------------|
----------2-----------|---------2-----2-------|
--2-------------------|--2--------------------|
----------0-----------|---------0-----0-------|


  E  E  E  E  E  E  E  E     E  E  E  E  E  E  E  E   
--------------------------|--------------------------|
--------------------------|--------------------------|
-----3-----------3--------|-----3-----------3--------|
-----------3-----------3--|-----------3-----------3--|


  E  E  E  E  E  E  E  E     E  E  E  E  E  E  E  E   
--------------------------|--------------------------|
--------------------------|--------------------------|
-----3-----------3--------|-----3-----------3--------|
-----------3-----------3--|-----------3-----------3--|


  Q    Q    Q    Q       Q    Q    Q    Q     
----------------------|----------------------|
----------------------|----------------------|
--6----6----6----6----|--6----6----6----6----|
----------------------|----------------------|


  Q    Q    Q    Q       Q    Q    Q    Q     
----------------------|----------------------|
----------------------|----------------------|
--6----6----6----6----|----------------------|
----------------------|--5----5----5----5----|


  Q    Q    Q    Q       Q    Q    Q    Q     
----------------------|----------------------|
----------------------|--7----7----7----7----|
----------------------|----------------------|
--5----5----5----5----|----------------------|


  E  S S E  S S E  S S E  S S  
------------------------------|
-----3-5-7--5-3----3-5-7--5-3-|
--6-------------6-------------|
------------------------------|


  E  E  E  E  E  E  E  E     Q    E  E  H         
--------------------------|----------------------|
--1--1--------------------|----------------------|
--------------0--0--3-----|--4-------4-----------|
--------3--3--------------|----------------------|


  Q    E  E  E  E  E  E     Q    E  E  H         
-------------------------|----------------------|
-------------------------|----------------------|
--4-------4-----4-----4--|--4-------4-----------|
-------------------------|----------------------|


  Q    E  E  E  E  E  E     E  E  E  E  E  E  E  E   
-------------------------|--------------------------|
-------------------------|-----2--------------------|
--4-------4-----4-----4--|--4-----4--------4--------|
-------------------------|-----------3--------3--3--|


  E  E  E  E  E  E  E  E     E  E  E  E  E  E  E  E   
--------------------------|--------------------------|
-----2--------------------|-----2--------------------|
--4-----4--------4--------|--4-----4--------4--------|
-----------3--------3--3--|-----------3--------3--3--|


  E  E  E  E  E  E  E  E     E  E  E  E  H          
--------------------------|-----------------------||
-----2--------------------|-----------------------||
--4-----4--------4--------|--4--4--4--4-----------||
-----------3--------3--3--|-----------------------||
Suggest correction
What's this?
You can suggest a correction to this tab. Community and Mods will review your correction and vote to approve or reject it.
comments
We did not receive enough feedback on this tab! Please rate:
print report bad tab
1 2 3 4 5
7 comments total. Showing first comments.
0 reply
supea 219 wrote on August 21 2007, 09:04 am

Why is this at top 100??

+1 reply
kartik510 83 wrote on August 24 2007, 06:16 pm

i luv it... Finally Mike Dirnt iz the King Of Bass!!

-2 reply
saturns_bassman 162 wrote on August 26 2007, 10:42 am

mike dirt is shit

guest
You may want to rate the tab now too:
select rating
Please do not post tabs as comments. Select "correction" instead!