Oops, an error
Loading. Please wait.

Simpsons Theme Tab

version 2
version 2

Whole song

Interactive

54,518 views 63 this week
12 commentsread comments
1 2 3 4 5
x 32
add to favorites
launch autoscroll
font size
0
reset
how to read this tab
guitar tuner
Autoscroll
slow
fast
+/-
esc
set tempo
stop
Help us to improve Ultimate-Guitar.com Take our survey!
×
Author
Green Day
Simpsons Single

this cover is awesome. first tab wasn't right so heres mine, im just correct a few 
Note that you can play it on the high E string, same notes only it doesnt sound how he plays 
Can can add a few bends here and there too.

Chords used: Figure out the strumming for yourself
C5   B5  E   G5
|--------------|
|(5)(4)-(9)----|
|-5--4---9---4-|
|-5--4---9---5-|
|-3--2---7---5-|
|------------3-|

   C5                          C5
|---------------------------|---------------------------|
|---5-7-b10-8-5-------------|---5-7-b10-8-5-------------|
|-5------------5------------|-5------------5------------|
|----------------7-4-4-4-5~-|----------------7-4-4-4-5~-|
|---------------------------|---------------------------|
|---------------------------|---------------------------|

   B5                          B5
|---------------------------|---------------------------|
|---4-6-b9-7-4--------------|---4-6-b9-7-4--------------|
|-4-----------4-------------|-4-----------4-------------|
|----------------6-3-3-3-4~-|----------------6-3-3-3-4~-|
|---------------------------|---------------------------|
|---------------------------|---------------------------|

    E                            E
|------------------------------|------------------------------|
|---9-11-b14-12-9--------------|---9-11-b14-12-9--------------|
|-9--------------9-------------|-9--------------9-------------|
|------------------11-8-8-8-9~-|------------------11-8-8-8-9~-|
|------------------------------|------------------------------|
|------------------------------|------------------------------|

   C5
|---------------------------|---------------------------|
|---5-7-10-8-5--------------|---5-7-10-8-5--------------|
|-5------------5------------|-5------------5------------|
|----------------7-4-4-4-5~-|----------------7-4-4-4-5~-|
|---------------------------|---------------------------|
|---------------------------|---------------------------|
Guitar 2
|---------------------------|---------------------------|-------------|
|---------------------------|---------------------------|-------------|
|-5-------------------------|----5----------------------|-55555555555-|
|-5-------------------------|----5----------------------|-55555555555-|
|-3-------------------------|----3----------------------|-33333333333-|
|---------------------------|-15/(C chord octive)-------|-------------|
Palm Mute                                                 ***********

Guitar 1
|------|------|------|------|------|------|------|------|------|------|
|-11---|-11---|-11---|-11---|-11---|-11---|-11---|-11---|-11---|-11---|
|----8-|----8-|----8-|----8-|----8-|----8-|----8-|----8-|----8-|----8-|
|------|------|------|------|------|------|------|------|------|------|
|------|------|------|------|------|------|------|------|------|------|
|------|------|------|------|------|------|------|------|------|------|
Guitar 2
|------|------|------|------|------|------|------|------|------|------|
|------|------|------|------|------|------|------|------|------|------|
|-8888-|-8888-|-8888-|-8888-|-8888-|-8888-|-8888-|-8888-|-8888-|-8888-|
|-8888-|-8888-|-8888-|-8888-|-8888-|-8888-|-8888-|-8888-|-8888-|-8888-|
|-6666-|-6666-|-6666-|-6666-|-6666-|-6666-|-6666-|-6666-|-6666-|-6666-|
|------|------|------|------|------|------|------|------|------|------|
PM****   ****   ****   ****   ****   ****   ****   ****   ****
                                                Start to release on P.M
|------|------|------|------|------|
|-11---|--8h11|-11h14|-11h14|----16|
|----8-|8-----|------|------|------|
|------|------|------|------|------|
|------|------|------|------|------|
|------|------|------|------|------|
Guitar 2
|------|------|------|------|------|
|------|------|------|------|------|
|-8----|-8888-|-8888-|-8888-|-8888-|
|------|-8888-|-8888-|-8888-|-8888-|
|------|-6666-|-6666-|-6666-|-6666-|
|------|------|------|------|------|

    E                            E
|------------------------------|------------------------------|
|---9-11-b14-12-9--------------|---9-11-b14-12-9--------------|
|-9--------------9-------------|-9--------------9-------------|
|------------------11-8-8-8-9~-|------------------11-8-8-8-9~-|
|------------------------------|------------------------------|
|------------------------------|------------------------------|

Guitar 1
|---------------------------------------------|
|---5-7-10-8-5--------------------------------|
|-5------------5---------------------5-5-5-5--|
|----------------7-4-4-4-5-4-4-4-5-5----------|
|---------------------------------------------|
|---------------------------------------------|
Guitar 2:
|---------------------------------------------|
|---------------------------------------------|
|-----5-5-5-5-5-5-5-5-5-5------------5-5-5-5--|
|-----5-5-5-5-5-5-5-5-5-5--4-4-4-5-0-5-5-5-5--|
|-----3-3-3-3-3-3-3-3-3-3--4-4-4-5-0-3-3-3-3--|
|-15/----------------------2-2-2-3-0----------|
Suggest correction
comments
print report bad tab
12 comments total. Showing first comments.
0 reply
chris_red 175 Jul 31, 2007 09:56 AM

great

0 reply
yamaha182 302 Jul 31, 2007 05:27 PM

haj great

+1 reply
goducks11 125 Jul 31, 2007 07:18 PM

i think youre bridge is better than the first version but it sounds pretty much the same without the bend, but whatever.

guest
You may want to rate the tab now too:
select rating
Wanna post a correction for this tab? Suggest correction