Oops, an error
Loading. Please wait.

Somewhere Now Bass Tab

version 1
version 1

Whole song

Interactive

406 views 12 this week
no commentswrite comment
1 2 3 4 5
x 3
add to favorites
launch autoscroll
font size
0
reset
guitar tuner
Autoscroll
slow
fast
+/-
esc
set tempo
stop
Help us to improve Ultimate-Guitar.com Take our survey!
×
Author
Difficulty
intermediate
Buildup
G|-----------------|-----------------|-----------------|
D|-----------------|-7-7-7-7-7-7-7-7-|-7-7-7-7-7-7-7-7-|
A|-----------------|-----------------|-----------------|
E|---------------5-|-----------------|-----------------|

Chorus
G|--------------------|----------------------|--------------------|-----------------|
D|--------------------|----------------------|------7-------------|-----------------|
A|--------------------|-5----5---5-5--5------|--------------------|-5-5-5-5-5-5-5-5-|
E|-5----5---5-5--5--3-|------------------2h3-|-5--------5-5--5--3-|-----------------|

G|--------------------|----------------------|--------------------|-----------------|
D|------7-------------|----------------------|--------------------|-----------------|
A|--------------------|-5----5---5-5--5--0-2-|-3------2-----------|-----------------|
E|-5--------5-5--5--3-|----------------------|---------------3----|-5-5-5-5-5-5-5-5-|

Break
G|-------------|-------------|--------------|---------------------|
D|-------------|-------------|--------------|---12-11-9-11-9------|
A|-5---5--5--5-|-3---3--3--5-|-2---2--------|----------------12-0-|
E|-------------|-------------|--------5-3-5-|---------------------|

Verse
G|-------------|-------------|--------------|---------------|
D|-------------|-------------|--------------|---------------|
A|-5---5--5--5-|-3---3--3--5-|-2---2--2--2--|---------------|
E|-------------|-------------|--------------|-5---5---5-7-5-|

G|-------------|-------------|--------------|----------------|
D|-------------|-------------|--------------|---7-7---7------|
A|-5---5--5--5-|-3---3--3--5-|-2---2--2--2--|----------------|
E|-------------|-------------|--------------|-5-----5---5-5-5|

G|-------------|-------------|--------------|---------------|
D|-------------|-------------|--------------|---------------|
A|-5---5--5--5-|-3---3--3--5-|-2---2--2--2--|---------------|
E|-------------|-------------|--------------|-5---5---5-7-5-|

G|-------------|-------------|--------------|-----------------|-------------------------|
D|-------------|-------------|--------------|---7-7-7-7-7-7-7-|-7-7-7-7-----------------|
A|-5---5--5--5-|-3---3--3--5-|-2---2--2--2--|-----------------|-------------------------|
E|-------------|-------------|--------------|-5---------------|---------x-x-x-x-x-x-x-x-|

Chorus
G|--------------------|----------------------|--------------------|-----------------|
D|--------------------|----------------------|--------------------|---------------5-|
A|--------------------|-5----5---5-5--5------|--------------------|-5-5-5-5-5-5-5---|
E|-5----5---5-5--5--3-|------------------2h3-|-5----5---5-5--5--3-|-----------------|

G|--------------------|----------------------|--------------------|-----------------|
D|-7----7---7-7--7--5-|----------------------|--------------------|-----------------|
A|--------------------|-5----5---5-5--5--0-2-|-3------2-----------|-----------------|
E|--------------------|----------------------|---------------3----|-5-5-5-5-5-5-5-5-|

G|--------------------|----------------------|--------------------|-------------6-9-|
D|-7----7---7-7--7--5-|----------------------|--------------------|---------5-7-----|
A|--------------------|-5----5---5-5--5------|--------------------|-5-5-5-5---------|
E|--------------------|------------------2h3-|-5----5---5-5--5--3-|-----------------|

G|--------------------|----------------------|--------------------|-----------------|
D|-7----7---7-7--7--5-|----------------------|--------------------|-----------------|
A|--------------------|-5----5---5-5--5--0-2-|-3------2-----------|-----------------|
E|--------------------|----------------------|---------------3----|-5-5-5-5-5-5-5-7-|

G|--------------------|------------------|----------------|
D|--------------------|------------------|----------------|
A|-3------2-----------|-------------5----|----------------|
E|---------------3----|-5-5-5-5-5-5------|-5--------------|

Bridge
Rest, then:

G|-----------------|-----------------|
D|-----------------|-----------------|
A|-----------2-2---|-----------2-2---|
E|-5-5-5-3-3-----3-|-5-5-5-3-3-----3-|

Rest, then:
G|-----------------|-----------------|-----------------|-----------------|
D|-----------------|-----------------|-----------------|-----------------|
A|-----------2-----|-----------2-----|-----------2-----|-----------2-----|
E|-5-5-5-3-------3-|-5-5-5-3-------3-|-5-5-5-3-------3-|-5-5-5-3-------3-|

Solo
G|-------------------|-------------------|-------------------|-------------------|
D|-------------------|-------------------|-------------------|-------------------|
A|-5-5-5-------------|-5-5-5-------------|-5-5-5-------------|-5-5-5-------------|
E|-------5----3----3-|-------5----3----3-|-------5----3----3-|-------5----3----3-|

G|-----------------|-----------------|
D|-----------------|-----------------|
A|-----------2-----|-----------2-----|
E|-5-5-5-3-------3-|-5-5-5-3-------3-|

G|-------------------|-------------------|-------------------|-------------------|
D|-------------------|-------------------|-------------------|-------------------|
A|-5-5-5-------------|-5-5-5-------------|-5-5-5-------------|-5-5-5-------------|
E|-------5----3----3-|-------5----3----3-|-------5----3----3-|-------5----3----3-|

G|-----------------|-----------------|-----------------|-----------------|-----------------|
D|-----------------|-----------------|-----------------|---------7-------|---------7-------|
A|-----------2-----|-----------2-----|-----------2-----|-----------------|-----------------|
E|-5-5-5-3-------3-|-5-5-5-3-------3-|-5-5-5-3-------3-|-5-5-5-5-5-5-5-5-|-5-5-5-5-5-5-5-5-|

Buildup
G|-----------|-----------|-----------|-----------------|-----------------|-----------------|
D|-----------|-----------|-----------|-----------------|-----7-------7---|-----7-----------|
A|-----------|-----------|-----------|-5----5----------|-----------------|-----------------|
E|-5---------|-----------|-3---------|--------3------5-|---5---5-5-5---5-|-5-5---5-5-5-5-5-|

Outro
G|-------------|-----------------|-------------|-----------------|----------------|
D|-5---------4-|---5-4-2-4-2-----|-5-----------|-------4-5-4-----|-5----4---------|
A|------5------|-------------5-0-|------5----5-|---5-7-------7-5-|-----------5----|
E|-------------|-----------------|-------------|-----------------|----------------|

G|-------------|-----------------|-------------|
D|---------7-9-|-10----9---------|-------------|
A|-------------|------------10---|-5-----------|
E|-------------|-----------------|-------------|
Suggest correction
Give kudos to tab author, rate the tab!
1 2 3 4 5
comments
print report bad tab
guest
You may want to rate the tab now too:
select rating
Wanna post a correction for this tab? Suggest correction