Oops, an error
Loading. Please wait.
We have an official Somewhere Now tab made by UG professional guitarists. Check out the tab »
×

Somewhere Now tab

version 1
version 1

Whole song

  • Not sure about the outro but the rest it's ok. Any... Show more
  • This tab is transcribed from the studio recorded v... Show more

Interactive

6,316 views 129 this week
1 commentread comment
1 2 3 4 5
x 10
add to favorites
×
Save as Personal and add changes to this tab that will be seen only by you. Learn more ›
×
You can save this tab as Personal to edit and correct it or add notes. All changes will be seen only by you. Learn more »
launch autoscroll
font size
0
reset
how to read this tab
guitar tuner
edit
Autoscroll
slow
fast
+/-
esc
set tempo
stop
Author
Difficulty
About this tab version
Not sure about the outro but the rest it's ok. Any correction or additions is welcome. Was this info helpful? Yes No
[Intro]

e|------0---------0---------0----------------------|------0---------0---------0----------------------|
B|--------3---------3---------3-------3-2h3p2------|--------3---------3---------3-----3-3-2-2-0-0-0--|
G|----2-----2---2-----2---2-----2---2---------2----|----2-----2---2-----2---2-----2---2-2-2-2-2-2-2--|
D|--0-------------------------------------------2--|--0-------------------------------2-2-2-2-2-2-2--|
A|------------3---------2---------0----------------|------------3---------2---------0----------------|
E|-------------------------------------------------|-------------------------------------------------|

[Verse]

e|------0---------0---------0----------------------|------0---------0---------0----------------------|
B|--------3---------3---------3-------3-2h3p2------|--------3---------3---------3-----3-3-2-2-0-0-0--|
G|----2-----2---2-----2---2-----2---2---------2----|----2-----2---2-----2---2-----2---2-2-2-2-2-2-2--|
D|--0-------------------------------------------2--|--0-------------------------------2-2-2-2-2-2-2--|
A|------------3---------2---------0----------------|------------3---------2---------0----------------|
E|-------------------------------------------------|-------------------------------------------------|

e|------0---------0---------0----------------------|------0---------0-------|
B|--------3---------3---------3-------3-2h3p2------|--------3---------3-----|
G|----2-----2---2-----2---2-----2---2---------2----|----2-----2---2-----2---|
D|--0-------------------------------------------2--|--0---------------------|
A|------------3---------2---------0----------------|------------3-----------|
E|-------------------------------------------------|------------------------|

[Pre-Chorus]

e|-------------------------------|
B|-------------------------------|
G|-------------------------------|
D|--7-7-----7-7------------------|
A|--7-7-----7-7------------------|
E|--5-5-----5-5----------12\-----|


[Chorus]

e|-----------------------------------------------------------------------------------------------|
B|-----------------------------------------------------------------------------------------------|
G|------------7-7-777-------------7-7-7-7-7-7-7-7-----------7-7-777------------------------------|
D|--7-7-777-5-7-7-777-5-7-7-777-5-7-7-7-7-7-7-7-7-7-7-777-5-7-7-777-------5---5-5-7-7-7-7-7-7-7--|
A|--7-7-777-5-5-5-555-5-7-7-777-5-5-5-5-5-5-5-5-5-7-7-777-5-5-5-555-0-2-3---2---5-7-7-7-7-7-7-7--|
E|--5-5-555-3---------3-5-5-555-3-----------------5-5-555-3---------------------3-5-5-5-5-5-5-5--|

[Verse 2]

e|------0---------0---------0----------------------|------0---------0---------0----------------------|
B|--------3---------3---------3-----3-3-2-2-0-0-0--|--------3---------3---------3-------3-2h3p2------|
G|----2-----2---2-----2---2-----2---2-2-2-2-2-2-2--|----2-----2---2-----2---2-----2---2---------2----|
D|--0----------------------------------------------|--0-------------------------------------------2--|
A|------------3---------2---------0----------------|------------3---------2---------0----------------|
E|-------------------------------------------------|-------------------------------------------------|

e|------0---------0---------0----------------------|------0---------0---------0----------------------|
B|--------3---------3---------3-----3-3-2-2-0-0-0--|--------3---------3---------3-------23-2h3p2-----|
G|----2-----2---2-----2---2-----2---2-2-2-2-2-2-2--|----2-----2---2-----2---2-----2---2---------4-2--|
D|--0----------------------------------------------|--0----------------------------------------------|
A|------------3---------2---------0----------------|------------3---------2---------0----------------|
E|-------------------------------------------------|-------------------------------------------------|

e|------0---------0---------0----|
B|--------3---------3---------3--|
G|----2-----2---2-----2---2------|
D|--0----------------------------|
A|------------3---------2--------|
E|-------------------------------|

[Pre-Chorus]

e|----------------------------------|
B|----------------------------------|
G|-----------------xxxxxxxx---------|
D|--7-7-----7-7----xxxxxxxx---------|
A|--7-7-----7-7----xxxxxxxx---------|
E|--5-5-----5-5----xxxxxxxx--12\----|


[Chorus]

e|-----------------------------------------------------------------------------------------------|
B|-----------------------------------------------------------------------------------------------|
G|------------7-7-777-------------7-7-7-7-7-7-7-7-----------7-7-777------------------------------|
D|--7-7-777-5-7-7-777-5-7-7-777-5-7-7-7-7-7-7-7-7-7-7-777-5-7-7-777-------5---5-5-7-7-7-7-7-7-7--|
A|--7-7-777-5-5-5-555-5-7-7-777-5-5-5-5-5-5-5-5-5-7-7-777-5-5-5-555-0-2-3---2---5-7-7-7-7-7-7-7--|
E|--5-5-555-3---------3-5-5-555-3-----------------5-5-555-3---------------------3-5-5-5-5-5-5-5--|

e|-------------------------------------------------------------------|
B|-------------------------------------------------------------------|
G|------------7-7-777-------------7-7-7-7-7-7-7-7-----------7-7-777--|
D|--7-7-777-5-7-7-777-5-7-7-777-5-7-7-7-7-7-7-7-7-7-7-777-5-7-7-777--|
A|--7-7-777-5-5-5-555-5-7-7-777-5-5-5-5-5-5-5-5-5-7-7-777-5-5-5-555--|
E|--5-5-555-3---------3-5-5-555-3-----------------5-5-555-3----------|

e|---------------------------------------------------------|
B|---------------------------------------------------------|
G|----------------7-7-7-7-7--------------------------------|
D|--------5---5-5-7-7-7-7-7-------5---5-5-7-7-7-7-7-7-7-7--|
A|--0-2-3---2---5-5-5-5-5-5-0-2-3---2---5-7-7-7-7-7-7-7-7--|
E|--------------3-----------------------3-5-5-5-5-5-5-5-5--|

[Bridge/Solo] 
(we can hear two guitars here, tabbed both)

Guitar 1

e|----------------|---------------------|
B|--7--5----------|---------------------|
G|--7--5--4-------|---------------------|
D|--7--5--5--(x3)-|--7-7-7-5-9-5--(x2)--|
A|--5--3--5-------|--7-7-7-5-9-5--------|
E|--------3-------|--5-5-5-3-7-3--------|

Guitar 2 

e|----------------|--------------------|
B|----------------|--10--10--10--------|
G|----------------|--13b-13b-13b--(x2)-|
D|----------------|--------------------|
A|----------------|--------------------|
E|----------------|--------------------|

Guitar 1

e|----------------|---------------------|
B|--7--5----------|---------------------|
G|--7--5--4-------|---------------------|
D|--7--5--5--(x3)-|--7-7-7-5-9-5--(x4)--|
A|--5--3--5-------|--7-7-7-5-9-5--------|
E|--------3-------|--5-5-5-3-7-3--------|

Guitar 2 

e|----------------|--------------------------------------|
B|----------------|--10--10--10---------10--10--10--10---|
G|----------------|--13b-13b-13b--(x3)--13b-13b-13b-13b--|
D|----------------|--------------------------------------|
A|----------------|--------------------------------------|
E|----------------|--------------------------------------|

Guitar 1

e|--------------------|---------------------|
B|--------------------|---------------------|
G|--7-7-7-------------|---------------------|
D|--7-7-7-7-5-7--(x4)-|--7-7-7-5-9-5--(x2)--|
A|--5-5-5-7-5-7-------|--7-7-7-5-9-5--------|
E|--------5-3-5-------|--5-5-5-3-7-3--------|

Guitar 2

e|------------------------------------14-----|--------------------|
B|--/15-----15------------------15-------15--|--14--14--14--------|
G|-------14----14-------(x2)-14----14--------|--17b-17b-17b--(x2)-|
D|----------------17-12----------------------|--------------------|
A|-------------------------------------------|--------------------|
E|-------------------------------------------|--------------------|

Guitar 1

e|--------------------|------------------------|
B|--------------------|------------------------|
G|--7-7-7-------------|------------------------|
D|--7-7-7-7-5-7--(x4)-|--7-7-7-5-9-5--(x3)--7--|
A|--5-5-5-7-5-7-------|--7-7-7-5-9-5--------7--|
E|--------5-3-5-------|--5-5-5-3-7-3--------5--|

Guitar 2

e|-------------------------------14-----|--------------------------|
B|-----15------------------15-------15--|--14--14--14---------17---|
G|--14----14-------(x3)-14----14--------|--17b-17b-17b--(x3)--19b--|
D|-----------17-12----------------------|--------------------------|
A|--------------------------------------|--------------------------|
E|--------------------------------------|--------------------------|

[Outro]

e|--------------------------------------------------------|
B|--------------------------------------------------------|
G|------------------12-11---------------------------------|
D|--777-777---55-4--12-11-7-7-7-7-7-7-7-7-7-7-7-7-7-7-7---|
A|--777-777---55-4--10-9--7-7-7-7-7-7-7-7-7-7-7-7-7-7-7---|
E|--555-555---33-2--------5-5-5-5-5-5-5-5-5-5-5-5-5-5-5---|

e|---------|
B|------7--|
G|------7--|(x3)
D|--5-5-7--|
A|--5-5-5--|
E|--3-3----|

There's another guitar on the outro but i couldn't figure it out.
I think they use the same notes from bridge/solo part


************************************

| x   Dead note
| h   Hammer-on
| p   Pull-off
| b   Bend
| /   Slide up
| \   Slide down

************************************

            
            
Suggest correction
Creating personal tab
Creating personal tab
You can edit any tab online and save it as your Personal.

You can edit, replace or remove any tab part or add personal notes – all changes will be seen only by you.

Personal tabs can be accessed anytime from any device, even offline.
Learn more »
comments
print report bad tab
1 comment total.
0 reply
blastinpepperoniz 10 Sep 24, 2017 08:16 PM

I'm always running late to somewhere now I don't want to be

guest
You may want to rate the tab now too:
select rating
Wanna post a correction for this tab? Suggest correction