Oops, an error
Loading. Please wait.
We have Chord Pro version of Somewhere Now.
It's the closest thing you can get to the original song and it has interactive parts. Check out the tab »
×

Somewhere Now tab

version 2
version 2

Whole song

  • Not sure about the outro but the rest it's ok. Any... Show more
  • This tab is transcribed from the studio recorded v... Show more

Interactive

661 views 33 this week
no commentswrite comment
1 2 3 4 5
x 3
add to favorites
×
Save as Personal and add changes to this tab that will be seen only by you. Learn more ›
×
You can save this tab as Personal to edit and correct it or add notes. All changes will be seen only by you. Learn more »
launch autoscroll
font size
0
reset
how to read this tab
guitar tuner
edit
Autoscroll
slow
fast
+/-
esc
set tempo
stop
Author
Difficulty
About this tab version
This tab is transcribed from the studio recorded version of the song. There are four guitar parts: an acoustic, two main guitars, and a third guitar that enters occasionally. Was this info helpful? Yes No
[Intro - Acoustic Guitar]
e|---------0-----------|---------0-----------|---------0-----------|-------------------------|
B|--------------3------|--------------3------|--------------3------|---------3----2h3p2------|
G|------2------------2-|------0------------0-|------0------------0-|------2-------------2----|
D|-0-------------------|---------------------|---------------------|-----------------------2-|
A|---------------------|-3-------------------|-2-------------------|-0-----------------------|
E|---------------------|---------------------|---------------------|-------------------------|

e|---------0-----------|---------0-----------|---------0-----------|--------------------------|
B|--------------3------|--------------3------|--------------3------|----3--3--2--2--0--0--0-0-|
G|------2------------2-|------0------------0-|------0------------0-|----2--2--2--2--2--2--2-0-|
D|-0-------------------|---------------------|---------------------|----2--2--2--2--2--2--2-0-|
A|---------------------|-3-------------------|-2-------------------|-0------------------------|
E|---------------------|---------------------|---------------------|--------------------------|

[Verse - Acoustic Guitar]
e|---------0-----------|---------0-----------|---------0-----------|-------------------------|
B|-3------------3------|--------------3------|--------------3------|---------3----2h3p2------|
G|-2----2------------2-|------0------------0-|------0------------0-|------2-------------2----|
D|-0-------------------|---------------------|---------------------|-----------------------2-|
A|---------------------|-3-------------------|-2-------------------|-0-----------------------|
E|---------------------|---------------------|---------------------|-------------------------|

e|---------0-----------|---------0-----------|---------0-----------|------------------------|
B|--------------3------|--------------3------|--------------3------|----3--3--2--2--0--0--0-|
G|------2------------2-|------0------------0-|------0------------0-|----2--2--2--2--2--2--0-|
D|-0-------------------|---------------------|---------------------|----2--2--2--2--2--2--0-|
A|---------------------|-3-------------------|-2-------------------|-0----------------------|
E|---------------------|---------------------|---------------------|------------------------|

e|---------0-----------|---------0-----------|---------0-----------|-------------------------|
B|--------------3------|--------------3------|--------------3------|---------3----2h3p2------|
G|------2------------2-|------0------------0-|------0------------0-|------2-------------2----|
D|-0-------------------|---------------------|---------------------|-----------------------2-|
A|---------------------|-3-------------------|-2-------------------|-0-----------------------|
E|---------------------|---------------------|---------------------|-------------------------|

e|---------0-----------|---------0-----------|
B|--------------3------|--------------3------|
G|------2------------2-|------0------------0-|
D|-0-------------------|---------------------|
A|---------------------|-3-------------------|
E|---------------------|---------------------|

[Chorus - Both Guitars. Enter on "...dull?" Lead guitar plays the slide from the 12th fret]
e|-------------------------------------|
B|-2--2--------------2--2--------------|
G|-2--2--------------2--2--------------|
D|-2--2--------------2--2--------------|
A|-0--0--------------0--0--------------|
E|-----------------------------------\-|

e|------------------------------------------|-------------------------------------------|
B|-2----2----2--2--3-----3----3----3--3-----|--2----2----2--2--3-----3--3--3--3--3----3-|
G|-2----2----2--2--0-----2----2----2--2-----|--2----2----2--2--0-----2--2--2--2--2----2-|
D|-2----2----2--2--0-----0----0----0--0-----|--2----2----2--2--0-----0--0--0--0--0----0-|
A|-0----0----0--0---------------------------|--0----0----0--0---------------------------|
E|-----------------3---------------------3--|------------------3------------------------|

e|--------------------------------------|--------------------------|
B|-2----2----2--2--3-----3----3----3--3-|--------------------------|
G|-2----2----2--2--0-----2----2----2--2-|-----------0------------2-|
D|-2----2----2--2--0-----0----0----0--0-|------------------------2-|
A|-0----0----0--0-----------------------|-0--2--3------2---------0-|
E|-----------------3--------------------|-------------------3------|

[Verse 2 - Rhythm Guitar]
e|---------0-----------|---------0-----------|---------0-----------|------------------------|
B|--------------3------|--------------3------|--------------3------|----3--3--2--2--0--0--0-|
G|------2------------2-|------0------------0-|------0------------0-|----2--2--2--2--2--2--0-|
D|-0-------------------|---------------------|---------------------|----2--2--2--2--2--2--0-|
A|---------------------|-3-------------------|-2-------------------|-0----------------------|
E|---------------------|---------------------|---------------------|------------------------|

e|---------0-----------|---------0-----------|---------0-----------|-------------------------|
B|--------------3------|--------------3------|--------------3------|---------3----2h3p2------|
G|------2------------2-|------0------------0-|------0------------0-|------2-------------2----|
D|-0-------------------|---------------------|---------------------|-----------------------2-|
A|---------------------|-3-------------------|-2-------------------|-0-----------------------|
E|---------------------|---------------------|---------------------|-------------------------|

e|---------0-----------|---------0-----------|---------0-----------|------------------------|
B|--------------3------|--------------3------|--------------3------|----3--3--2--2--0--0--0-|
G|------2------------2-|------0------------0-|------0------------0-|----2--2--2--2--2--2--0-|
D|-0-------------------|---------------------|---------------------|----2--2--2--2--2--2--0-|
A|---------------------|-3-------------------|-2-------------------|-0----------------------|
E|---------------------|---------------------|---------------------|------------------------|

e|---------0-----------|---------0-----------|---------0-----------|--------------------------|
B|--------------3------|--------------3------|--------------3------|---------2--3--2h3p2------|
G|------2------------2-|------0------------0-|------0------------0-|------2--------------2----|
D|-0-------------------|---------------------|---------------------|------------------------2-|
A|---------------------|-3-------------------|-2-------------------|-0------------------------|
E|---------------------|---------------------|---------------------|--------------------------|

e|---------0-----------|---------0-----------|---------0-----------|
B|--------------3------|--------------3------|--------------3------|
G|------2------------2-|------0------------0-|------0------------0-|
D|-0-------------------|---------------------|---------------------|
A|---------------------|-3-------------------|-2-------------------|
E|---------------------|---------------------|---------------------|
                                             
[Chorus 2 - Rhythm Guitar. Played with Lead Guitar part]
e|-------------------------------x-x-x-x-x-x-x-x-|
B|-2--2--------------2--2--------x-x-x-x-x-x-x-x-|
G|-2--2--------------2--2--------x-x-x-x-x-x-x-x-|
D|-2--2--------------2--2--------x-x-x-x-x-x-x-x-|
A|-0--0--------------0--0--------x-x-x-x-x-x-x-x-|
E|-------------------------------x-x-x-x-x-x-x-x-|

[Chorus 2 - Lead Guitar. Played with Rhythm Guitar part]
e|---------------------------------x-x-x-x---|
B|---2--2--------------2--2--------x-x-x-x---|
G|---2--2--------------2--2--------x-x-x-x---|
D|---2--2--------------2--2--------x-x-x-x---|
A|---0--0--------------0--0--------x-x-x-x---|
E|-\-------------------------------x-x-x-x-\-|

[Chorus 2 - Both Guitars]
e|------------------------------------------|-------------------------------------------|
B|-2----2----2--2--3-----3----3----3--3-----|--2----2----2--2--3-----3--3--3--3--3----3-|
G|-2----2----2--2--0-----2----2----2--2-----|--2----2----2--2--0-----2--2--2--2--2----2-|
D|-2----2----2--2--0-----0----0----0--0-----|--2----2----2--2--0-----0--0--0--0--0----0-|
A|-0----0----0--0---------------------------|--0----0----0--0---------------------------|
E|-----------------3---------------------3--|------------------3------------------------|

e|--------------------------------------|--------------------------|
B|-2----2----2--2--3-----3----3----3--3-|--------------------------|
G|-2----2----2--2--0-----2----2----2--2-|-----------0------------2-|
D|-2----2----2--2--0-----0----0----0--0-|------------------------2-|
A|-0----0----0--0-----------------------|-0--2--3------2---------0-|
E|-----------------3--------------------|-------------------3------|

e|----------------------------------------------|-------------------------------------------|
B|-----2----2----2--2--3-----3----3----3--3-----|--2----2----2--2--3-----3--3--3--3--3----3-|
G|-----2----2----2--2--0-----2----2----2--2-----|--2----2----2--2--0-----2--2--2--2--2----2-|
D|-----2----2----2--2--0-----0----0----0--0-----|--2----2----2--2--0-----0--0--0--0--0----0-|
A|-----0----0----0--0---------------------------|--0----0----0--0---------------------------|
E|-\-------------------3---------------------3--|------------------3------------------------|

e|--------------------------------------|-----------------------------------------|
B|-2----2----2--2--3-----3----3----3--3-|------------------------3--3--3--3--3--3-|
G|-2----2----2--2--0-----2----2----2--2-|-----------0------------2--2--2--2--2--2-|
D|-2----2----2--2--0-----0----0----0--0-|------------------------0--0--0--0--0--0-|
A|-0----0----0--0-----------------------|-0--2--3------2--------------------------|
E|-----------------3--------------------|-------------------3---------------------|

                                 [Lead Guitar plays these last 2 chords]
e|-------------------------------|-----------0-|
B|-------------------------------|------3----5-|
G|-----------0------------2------|------2------|
D|------------------------2------|-------------|
A|-0--2--3------2---------0------|-------------|
E|-------------------3-----------|-------------|

[Bridge - Acoustic Guitar]
e|--------------------------------------------|--------------------------------------------|
B|--------------------------------------------|--------------------------------------------|
G|-7--7--7--7--7--7--7--7--5------------------|-7--7--7--7--7--7--7--7--5------------------|
D|-7--7--7--7--7--7--7--7--5------5------5----|-7--7--7--7--7--7--7--7--5------5------5----|
A|-5--5--5--5--5--5--5--5--3------5------5----|-7--7--7--7--7--7--7--7--3------5------5----|
E|--------------------------------3------3--0-|--------------------------------3------3--0-|

e|----------------------------------|
B|----------------------------------|
G|-7--7--7--7--7--7--7--7--5--------|
D|-7--7--7--7--7--7--7--7--5------5-|
A|-5--5--5--5--5--5--5--5--3------5-|
E|--------------------------------3-|

[Rhythm Guitar - Played after Acoustic Part] 
e|------------------------------|
B|------------------------------|
G|-2--2--2-2-----------4--4-4---| 2x
D|-2--2--2-2-5--5-5----4--4-4---|
A|-0--0--0-0-5--5-5----2--2-2---|
E|-----------3--3-3-----------3-|

[Lead Guitar - Played with Rhythm Guitar part] 
e|---------------|
B|-10---10---10--|
G|-13b--13b--13b-| 2x
D|---------------|
A|---------------|
E|---------------|

[Acoustic Guitar - Played after Lead and Rhythm Guitars]
e|--------------------------------------------|--------------------------------------------|
B|--------------------------------------------|--------------------------------------------|
G|-7--7--7--7--7--7--7--7--5------------------|-7--7--7--7--7--7--7--7--5------------------|
D|-7--7--7--7--7--7--7--7--5------5------5----|-7--7--7--7--7--7--7--7--5------5------5----|
A|-5--5--5--5--5--5--5--5--3------5------5----|-7--7--7--7--7--7--7--7--3------5------5----|
E|--------------------------------3------3--0-|--------------------------------3------3--0-|
                
                                      [Both Guitars play this last G note with slight bend]
e|------------------------------------|-----|
B|------------------------------------|-----|
G|-7--7--7--7--7--7--7--7--5----------|-----|
D|-7--7--7--7--7--7--7--7--5------5---|-----|
A|-5--5--5--5--5--5--5--5--3------5---|-----|
E|--------------------------------3---|---3-|

[Rhythm Guitar - Played after Acoustic Part]
e|------------------------------|
B|------------------------------|
G|-2--2--2-2-----------4--4-4---| 4x
D|-2--2--2-2-5--5-5----4--4-4---|
A|-0--0--0-0-5--5-5----2--2-2---|
E|-----------3--3-3-----------3-|

e|----------------------|
B|----------------------|
G|-7--7--7--------------| 4x
D|-7--7--7--7----5----5-|
A|-5--5--5--7----5----5-|
E|----------5----3----3-|

e|------------------------------|
B|------------------------------|
G|-2--2--2-2-----------4--4-4---| 2x
D|-2--2--2-2-5--5-5----4--4-4---|
A|-0--0--0-0-5--5-5----2--2-2---|
E|-----------3--3-3-----------3-|

e|----------------------|
B|----------------------|
G|-7--7--7--------------| 4x
D|-7--7--7--7----5----5-|
A|-5--5--5--7----5----5-|
E|----------5----3----3-|

e|------------------------------|
B|------------------------------|
G|-2--2--2-2-----------4--4-4---| 3x
D|-2--2--2-2-5--5-5----4--4-4---|
A|-0--0--0-0-5--5-5----2--2-2---|
E|-----------3--3-3-----------3-|

e|-------------------------------------|
B|-------------------------------------|
G|-2----------------2----------------2-|
D|-2----------------2----------------2-|
A|-0----------------0----------------0-|
E|-------------------------------------|

[Lead Guitar - Played with Rhythm Guitar part]
e|-----------------|
B|-10--10--10--\-/-|
G|-13b-13b-13b-\-/-| 3x
D|-----------------|
A|-----------------|
E|-----------------|

e|----------------------|
B|-10--10--10--10---10--|
G|-13b-13b-13b-13b--13b-|
D|----------------------|
A|----------------------|
E|----------------------|

e|------------|-----------------------------------|
B|-/15~-------|------------------15---------------|
G|------------|-------12-/-(14)------14--12-------| 2x
D|------------|--------------------------------12-|
A|------------|-----------------------------------|
E|------------|-----------------------------------|

[A 3rd guitar plays this C# while Lead Guitar plays the slide up to the D note on the 2nd string with vibrato]
e|------|
B|------|
G|--11~-|
D|------|
A|------|
E|-\----|

e|--------------------14--------|
B|------------15------------15~-|
G|-12-/-(14)------14------------|
D|------------------------------|
A|------------------------------|
E|------------------------------|

e|---------------------------------|
B|-14--14--14--\-/-14--14--14--14--|
G|-16b-16b-16b-\-/-16b-16b-16b-16b-|
D|---------------------------------|
A|---------------------------------|
E|---------------------------------|

e|-----------------------------|
B|------------15---------------|
G|-12-/-(14)------14--12-------| 3x
D|--------------------------12-|
A|-----------------------------|
E|-----------------------------|

e|--------------------14-----------------------------------------------------------------------------|
B|------------15------------15~--14-14--14--14--14--\-/-14--14--14--14--\-/-14--14--14--------14-17--|
G|-12-/-(14)------14----------------16b-16b-16b-16b-\-/-16b-16b-16b-16b-\-/-16b-16b-16b----------19b-|
D|---------------------------------------------------------------------------------------------------|
A|---------------------------------------------------------------------------------------------------|
E|---------------------------------------------------------------------------------------------------|

[Outro - Both Guitars - Begin playing on "Under..."]
e|-3--------------------------------------------------------------------------------------|
B|-3----------------3--------------------2----2--2--2--2--2--2--2--2--2--2--2--2--2--2----|
G|-0----------------0--------------------2----2--2--2--2--2--2--2--2--2--2--2--2--2--2----|
D|-0----------------0--------------------2----2--2--2--2--2--2--2--2--2--2--2--2--2--2----|
A|-2-------------------------------------0----0--0--0--0--0--0--0--0--0--0--0--0--0--0----|
E|-3----------------2------------3--2---------------------------------------------------\-|

e|-3------3---------------------------------|
B|-3------3------3--------------------------|
G|-0------0------2--------------------------| 2x
D|-0------0------0--------------------------|
A|-2------2---------------------------------|
E|-3------3-------------------------------\-|

e|-3------3--------|
B|-3------3------3-|
G|-0------0------2-|
D|-0------0------0-|
A|-2------2--------|
E|-3------3--------|

[Outro - 3rd Guitar]
e|------10---------10---------10----10--10--|-------10-------10-------12-------10-|
B|-8----------8----------7-----------8---7--|--8----------8--------8--------8-----|
G|------------------------------------------|-------------------------------------|
D|------------------------------------------|-------------------------------------|
A|------------------------------------------|-------------------------------------|
E|------------------------------------------|-------------------------------------|

e|-10------10------10-|
B|--8-------8-------8-|
G|--------------------| 2x
D|--------------------|
A|--------------------|
E|--------------------|



************************************

| x   Dead note
| h   Hammer-on
| p   Pull-off
| b   Bend
| \   Slide down
| /   Slide up
| ~   Vibrato
| (n) Ghost note

************************************
Suggest correction
Creating personal tab
Creating personal tab
You can edit any tab online and save it as your Personal.

You can edit, replace or remove any tab part or add personal notes – all changes will be seen only by you.

Personal tabs can be accessed anytime from any device, even offline.
Learn more »
Give kudos to tab author, rate the tab!
1 2 3 4 5
comments
print report bad tab
guest
You may want to rate the tab now too:
select rating
Wanna post a correction for this tab? Suggest correction