Oops, an error
Loading. Please wait.

St Jimmy Tab

version 3
version 3

Whole song

Interactive

40,720 views 18 this week
4 commentsread comments
1 2 3 4 5
worth learning
x 13
add to favorites
launch autoscroll
font size
0
reset
how to read this tab
guitar tuner
Autoscroll
slow
fast
+/-
esc
set tempo
stop
Help us to improve Ultimate-Guitar.com Take our survey!
×
Author
Tablatura de: NICO M.   (nicokbbl@hotmail.com)

Artista: Green Day
Cancion: St Jimmy
Album: American Idiot (2004)


Intro.

1|--------------------------------------------------|
2|--------------------------------------------------|
3|--------------------------------------------------|
4|--7-----------------------------------------------|
5|--7-----------------------------------------------|
6|--5-5-5-5-5-5-5-5-5-5-5-5-5-5-5-5-5-5-5-5-5-5-5-5-|



1|--------------------------------------------------|
2|--------------------------------------------------|
3|--7-----------------------------------------------|
4|--7-7---------------------------------------------| x2
5|--5-7---------------------------------------------|
6|----5-5-5-5-5-5-5-5-5-5-5-5-5-5-5-5-5-5-5-5-5-5-5-|
 
         St. Jimmy's comin' down across the alleyway
         Up on the boulevard like a zip gun on parade   

1|--------------------------------------------------|
2|--------------------------------------------------|
3|--7-----------------------7-----------------------|
4|--7-7---------------------7-7---------------------| 
5|--5-7---------------------5-7---------------------|
6|----5-5-5-5-5-5-5-5-5-5-5---5-5-5-5-5-5-5-5-5-5-5-|

    Light of a silhouette       He's insubordinate
1|--------------------------------------------------|
2|--------------------------------------------------|
3|--7------------------------7----------------------|
4|--7-7----------------------7----7-6---------------|
5|--5-7----------------------5----7-6---------------|
6|----5-5-5-5-5-5-5-5-5-5-5-------5-4---------------|


   Coming at you on the count of 1,2,1,2,3,4!


1|--------------------------------------------------------------------------|
2|--------------------------------------------------------------------------|
3|----------7-7-7-7-9-9-9-9-14-14-14-14---------7-7-7-7-9-9-9-9-14-14-14-14-|
4|--7-7-7-7-7-7-7-7-9-9-9-9-14-14-14-14-7-7-7-7-7-7-7-7-9-9-9-9-14-14-14-14-|
5|--7-7-7-7-5-5-5-5-7-7-7-7-12-12-12-12-7-7-7-7-5-5-5-5-7-7-7-7-12-12-12-12-|
6|--5-5-5-5-----------------------------5-5-5-5-----------------------------|
       


1|--------------------------------------------------------------------------|
2|--------------------------------------------------------------------------|
3|----------7-7-7-7-9-9-9-9-14-14-14-14---------7-7-7-7-9-9-9-9-14-14-14-14-|
4|--7-7-7-7-7-7-7-7-9-9-9-9-14-14-14-14-7-7-7-7-7-7-7-7-9-9-9-9-14-14-14-14-|
5|--7-7-7-7-5-5-5-5-7-7-7-7-12-12-12-12-7-7-7-7-5-5-5-5-7-7-7-7-12-12-12-12-|
6|--5-5-5-5-----------------------------5-5-5-5-----------------------------|

    My name is Jimmy and you better not wear it out
    Suicide commando that your momma talked about


1|--------------------------------------------------------------------------|
2|--------------------------------------------------------------------------|
3|----------7-7-7-7-9-9-9-9-14-14-14-14---------7-7-7-7-9-9-9-9-14-14-14-14-|
4|--7-7-7-7-7-7-7-7-9-9-9-9-14-14-14-14-7-7-7-7-7-7-7-7-9-9-9-9-14-14-14-14-|
5|--7-7-7-7-5-5-5-5-7-7-7-7-12-12-12-12-7-7-7-7-5-5-5-5-7-7-7-7-12-12-12-12-|
6|--5-5-5-5-----------------------------5-5-5-5-----------------------------|

    King of the forty theives
    And I'm here to represent
    That needle in the vein of the establishment

1|-------------------------------------------------------|
2|-------------------------------------------------------|
3|-------------------------------------------------------|x2
4|--7-7-7-7-7-7-7-5-5-5-5-5-5-5--------------------------|
5|--7-7-7-7-7-7-7-5-5-5-5-5-5-5--------------------------|
6|--5-5-5-5-5-5-5-3-3-3-3-3-3-3--------------------------|


    I'm the patron saint of the denial
    With an angel face and a taste for suicidal

1|--------------------------------------------------------------------------|
2|--------------------------------------------------------------------------|
3|----------7-7-7-7-9-9-9-9-14-14-14-14---------7-7-7-7-9-9-9-9-14-14-14-14-|
4|--7-7-7-7-7-7-7-7-9-9-9-9-14-14-14-14-7-7-7-7-7-7-7-7-9-9-9-9-14-14-14-14-|
5|--7-7-7-7-5-5-5-5-7-7-7-7-12-12-12-12-7-7-7-7-5-5-5-5-7-7-7-7-12-12-12-12-|
6|--5-5-5-5-----------------------------5-5-5-5-----------------------------|



1|--------------------------------------------------------------------------|
2|--------------------------------------------------------------------------|
3|----------7-7-7-7-9-9-9-9-14-14-14-14---------7-7-7-7-9-9-9-9-14-14-14-14-|
4|--7-7-7-7-7-7-7-7-9-9-9-9-14-14-14-14-7-7-7-7-7-7-7-7-9-9-9-9-14-14-14-14-|
5|--7-7-7-7-5-5-5-5-7-7-7-7-12-12-12-12-7-7-7-7-5-5-5-5-7-7-7-7-12-12-12-12-|
6|--5-5-5-5-----------------------------5-5-5-5-----------------------------|


     Cigarettes and ramen and a little bag of dope
     I am the son of a bitch and Edgar Allen Poe


1|--------------------------------------------------------------------------|
2|--------------------------------------------------------------------------|
3|----------7-7-7-7-9-9-9-9-14-14-14-14---------7-7-7-7-9-9-9-9-14-14-14-14-|
4|--7-7-7-7-7-7-7-7-9-9-9-9-14-14-14-14-7-7-7-7-7-7-7-7-9-9-9-9-14-14-14-14-|
5|--7-7-7-7-5-5-5-5-7-7-7-7-12-12-12-12-7-7-7-7-5-5-5-5-7-7-7-7-12-12-12-12-|
6|--5-5-5-5-----------------------------5-5-5-5-----------------------------|


      Raised in the city under a halo of lights
      The product of war and fear that we've been victimized


1|-------------------------------------------------------|
2|-------------------------------------------------------|
3|-------------------------------------------------------|x2
4|--7-7-7-7-7-7-7-5-5-5-5-5-5-5--------------------------|
5|--7-7-7-7-7-7-7-5-5-5-5-5-5-5--------------------------|
6|--5-5-5-5-5-5-5-3-3-3-3-3-3-3--------------------------|


       I'm the patron saint of the denial
       With an angel face and a taste for suicidal


1|--------------------------------------------------------|
2|--------------------------------------------------------|
3|----7-9-7-14----7-9-7-14----7-9-7-14----7-9-7-14--------|
4|--7-7-9-7-14--7-7-9-7-14--7-7-9-7-14--7-7-9-7-14--------|
5|--7-5-7-5-12--7-5-7-5-12--7-5-7-5-12--7-5-7-5-12--------|
6|--5-----------5-----------5-----------5-----------------|

ARE YOU TALKING TO ME?

1|-----------------------------------------------------|
2|-----------------------------------------------------|
3|----------9-9-9-9-5-5-5-5-8-8-8-8--------------------|x4
4|--7-7-7-7-9-9-9-9-5-5-5-5-8-8-8-8--------------------|
5|--7-7-7-7-7-7-7-7-3-3-3-3-6-6-6-6--------------------|
6|--5-5-5-5--------------------------------------------|

I'll give you something to cry about.

1|------------------------------------------------------|
2|------------------------------------------------------|
3|--------------7--7--7--7--9--9--9--9--14--14--14--14--|
4|--7--7--7--7--7--7--7--7--9--9--9--9--14--14--14--14--|
5|--7--7--7--7--5--5--5--5--7--7--7--7--12--12--12--12--|
6|--5--5--5--5------------------------------------------|

ST. JIMMY!

1|------------------------------------------------------|
2|------------------------------------------------------|
3|--------------7--7--7--7------------------------------|
4|--7--7--7--7--7--7--7--7--5--5--5--5--5--5--5--5--5---|
5|--7--7--7--7--5--5--5--5--5--5--5--5--5--5--5--5--5---|
6|--5--5--5--5--------------3--3--3--3--3--3--3--3--3---|



1|----------------------------------------------|
2|----------------------------------------------|
3|--9-9-9-9-7-7-7-7/12--12-11-14----------------|
4|----------------------------------------------|
5|----------------------------------------------|
6|----------------------------------------------|



My name is St. Jimmy I'm a son of a gun
I'm the one that's from the way outside
I'm a teenage assassin executing some fun
In the cult of the life of crime.

I really hate to say it but I told you so
So shut your mouth before I shoot you down old boy
Welcome to the club and give me some blood
And the resident leader at the lost and found


1|-------------------------------------|-------------------|
2|-------------------------------------|-------------------|
3|--9---7--7-9-9----9---7--7-9-9-------|-------------------|
4|--9-7-7--7-9-9-7--9-7-7--7-9-9-14----|---7--7--7--7------|
5|--7-7-5--5-7-7-7--7-7-5--5-7-7-14----|---7--7--7--7------|
6|----5----------5----5----------12----|---5--5--5--5------|


     It's comedy and tragedy
     It's St. Jimmy
     And that's my nameeeeeee...and don't wear it out!
Suggest correction
comments
print report bad tab
4 comments total. Showing first comments.
0 reply
DanSumthing 221 wrote on March 9 2005, 12:00 am

No good.

0 reply
greendaypunk901 10 wrote on April 4 2006, 07:45 pm

its alright for begginners but im more advanced so i'll give it a 4 for begginners

0 reply
greendaypunk901 10 wrote on April 7 2006, 08:42 pm

jesus christ lord save me no one can tab this right but ....reizig can

guest
You may want to rate the tab now too:
select rating
Wanna post a correction for this tab? Suggest correction