Oops, an error
Loading. Please wait.

Stay The Night Chords

version 3
version 3

Whole song

Interactive

2,819 views 9 this week
no commentswrite comment
1 2 3 4 5
excellent!
x 4
add to favorites
launch autoscroll
font size
0
reset
transpose
0
reset
display chords
guitar tuner
Tab Pro tools
  • play this tab
  • loop segment
  • change instrument
  • show fretboard
  • metronome
×
Best way to learn
"Stay The Night"
Autoscroll
slow
fast
+/-
esc
set tempo
stop
Contributor
Difficulty
intermediate
Song: Stay The Night
tabber: Kalentherocker

ok. for the chords, you can play them open but i prefer to use barre chords.


INTRO

e-------------------------------------------------------------------|
B-------------------------------------------------------------------|
G--------11-11-12-14-14-12-11-11-9-11-11-11-12-14-14-12-------------|
D--------0--0--0--0--0--0--0--0--0--0--0--0--0--0--0--0-11-11-12-14-|
A-------------------------------------------------------0--0--0--0--|
E-------------------------------------------------------------------|

e-------------------------------------------------------------------|
B-------------------------------------------------------------------|
G--------11-11-12-14-14-12-0--0--0--0-------------------------------|
D--------0--0--0--0--0--0--12-12-10-9-------------------------------|
A---------------------------------------11-11-12-14-12-11-----------|
E-------------------------------------------------------------------|

MAIN RIFF

D D D D A A D G 
G G G A    D D

The Chorus Plays with one strum and then palm muting

D                              G               A     DD
Well, I ain't got much time so I'll get to the point
D                             G                 A             DD
Do you wanna share a ride and get the fuck out of this joint?
D                      G                A          D D
I've got an impulse so repulsive that it burns
D                        G                   A
I wanna break your heart until it makes your stomach churn

PRE CHORUS

Bm       G                  D            A
I got to know if you're the one that got away
Bm    G            D              A
Even though it was never meant to be

Chorus

D          A    D   G
Stay, just stay the night
G A
Because we're running out of time
   A        D
So stay the night
G                 A
I don't wanna say goodbye
D          A    D   G
Say you'll stay the night
G  D
Because we're running out of time
   A        D
So stay the night
G A
I don't wanna say goodbye

VERSE 2

I'm just sick and tired of feeling so alone
Well, I don't understand the point if you have to go home
So won't you stay and count the circles 'round my eyes?
And we can watch the stars until the sun begins to rise

PRE CHORUS

I got to know if you're the one one that got away
Even though it was never meant to be

little solo here. i can't really figure it out so i just play the rythem part

CHORUS

PRE CHORUS
I got to know if you're the one one that got away
Even though it was never meant to be

CHORUS

OUTRO

e-------------------------------------------------------------------|
B-------------------------------------------------------------------|
G--------11-11-12-14-14-12-11-11-9-11-11-11-12-14-14-12-------------|
D--------0--0--0--0--0--0--0--0--0--0--0--0--0--0--0--0-11-11-12-14-|
A-------------------------------------------------------0--0--0--0--|
E-------------------------------------------------------------------|

e-------------------------------------------------------------------|
B-------------------------------------------------------------------|
G--------11-11-12-14-14-12-0--0--0--0-------------------------------|
D--------0--0--0--0--0--0--12-12-10-9-------------------------------|
A---------------------------------------11-11-12-14-12-11-----------|
E-------------------------------------------------------------------|

D D D D D D D D D D D D D D D D D-------->
comments
print report bad tab
I want to post or [tab]
guest
You may want to rate the tab now too:
select rating
Please do not post tabs as comments. Select "correction" instead!