Oops, an error
Loading. Please wait.

Stay The Night tab

version 5
version 5

Interactive

28,200 views 45 this week
4 commentsread comments
1 2 3 4 5
x 46
add to favorites
×
Save as Personal and add changes to this tab that will be seen only by you. Learn more ›
×
You can save this tab as Personal to edit and correct it or add notes. All changes will be seen only by you. Learn more »
launch autoscroll
font size
0
reset
how to read this tab
guitar tuner
edit
Autoscroll
slow
fast
+/-
esc
set tempo
stop
Author
Difficulty
 This version is 99.9% correct. If you have found some mistakes or something just
doesn't sound right send me an email at bubbleboygranmoe@yahoo.com and I will be
more than happy to fix it!

Also rate and comment!!!

Guitar 1: Billie Joe Armstrong
Guitar 2: Jason White

Palm Mute = *




Intro:
 Guitar 1
E|-------------------------------|----------------------------------|-------|
B|-------------------------------|----------------------------------|-------|
G|-11-11-12-14-14-12-11-11-9-11--|-11-11-12-14-14-------------------|-11-11-|
D|-0--0--0--0--0--0--0--0--0-0---|-0--0--0--0--0--12-11-11-12-14----|-0--0--|
A|-------------------------------|----------------0--0--0--0--0-----|-------|
E|-------------------------------|----------------------------------|-------|

E|------------------------|-------------------|
B|------------------------|-------------------|
G|-12-14-14-14-0--0--0--0-|-------------------|
D|-0--0--0--0--12-12-11-9-|-11-11-12-14-12-11-|
A|------------------------|-0--0--0--0--0--0--|
E|------------------------|-------------------|


Verse Pt. 1:
 Guitar 1
E|--------------------------------------------------------------|
B|--------------------------------------------------------------|
G|-7--7-7-7-7-7-7----------7------------------------------------|
D|-7--7-7-7-7-7-7--7--7-7--7--7--5--5-5-5-5-5-5--7--7-7-7-7-7-7-|x2
A|-5--5-5-5-5-5-5--7--7-7--5--7--5--5-5-5-5-5-5--7--7-7-7-7-7-7-|
E|-----------------5--5-5-----5--3--3-3-3-3-3-3--5--5-5-5-5-5-5-|
                                                                             Guitar 2
E|--------------------------------------------------------------|
B|--------------------------------------------------------------|
G|-7--7-7-7-7-7-7----------7------------------------------------|
D|-7--7-7-7-7-7-7--7--7-7--7--7--5--5-5-5-5-5-5--7--7-7-7-7-7-7-|x2
A|-5--5-5-5-5-5-5--7--7-7--5--7--5--5-5-5-5-5-5--7--7-7-7-7-7-7-|
E|-----------------5--5-5-----5--3--3-3-3-3-3-3--5--5-5-5-5-5-5-|


Verse Pt.2
 Guitar 1
E|-------|
B|-------|
G|-7-7---|
D|-7-7---| (x4)
A|-5-5---|
E|-------|

 Guitar 2
   Palm Muted
  1st & 3rd time       2nd & 4th time
E|------------------|------------------|
B|------------------|------------------|
G|-7----------------|-7----------------|
D|-7-(x16)--7-------|-7-(x16)-5------7-|
A|-5--------7-(x16)-|-5-------5-(x8)-7-|
E|----------5-------|---------3------5-|
   *        *         *       *      *


Pre-Chorus:
 Guitar 1
                                             On 2nd time cont.
                                          Strumming till the chorus
E|------------------------------------------|----------------|
B|------------------------------------------|----------------|
G|-4--4--4-4-4------------------7--7--7-7-7-|----------------|
D|-4--4--4-4-4--5--5-5-5-5-5-5--7--7--7-7-7-|-7--7-7-7-7-7-7-|x2
A|-2--2--2-2-2--5--5-5-5-5-5-5--5--5--5-5-5-|-7--7-7-7-7-7-7-|
E|--------------3--3-3-3-3-3-3--------------|-5--5-5-5-5-5-5-|

Guitar 2
                                              On 2nd time cont.
                                          Strumming till the chorus
E|------------------------------------------|----------------|
B|------------------------------------------|----------------|
G|------------------------------7--7--7-7-7-|----------------|
D|-9--9--9-9-9--5--5-5-5-5-5-5--7--7--7-7-7-|-7--7-7-7-7-7-7-|x2
A|-9--9--9-9-9--5--5-5-5-5-5-5--5--5--5-5-5-|-7--7-7-7-7-7-7-|
E|-7--7--7-7-7--3--3-3-3-3-3-3--------------|-5--5-5-5-5-5-5-|


Chorus:
 Guitar 1
E|--------------------------------------------------------------|
B|--------------------------------------------------------------|
G|-7--7-7-7-7-7-7----------7------------------------------------|
D|-7--7-7-7-7-7-7--7--7-7--7--7--5--5-5-5-5-5-5--7--7-7-7-7-7-7-|x5
A|-5--5-5-5-5-5-5--7--7-7--5--7--5--5-5-5-5-5-5--7--7-7-7-7-7-7-|
E|-----------------5--5-5-----5--3--3-3-3-3-3-3--5--5-5-5-5-5-5-|
                                                                             Guitar 2
E|--------------------------------------------------------------|
B|--------------------------------------------------------------|
G|-7--7-7-7-7-7-7----------7------------------------------------|
D|-7--7-7-7-7-7-7--7--7-7--7--7--5--5-5-5-5-5-5--7--7-7-7-7-7-7-|x5
A|-5--5-5-5-5-5-5--7--7-7--5--7--5--5-5-5-5-5-5--7--7-7-7-7-7-7-|
E|-----------------5--5-5-----5--3--3-3-3-3-3-3--5--5-5-5-5-5-5-|


Verse:
 Guitar 1
E|-------|
B|-------|
G|-7-7---|
D|-7-7---| (x4)
A|-5-5---|
E|-------|

 Guitar 2
   Palm Muted
  1st & 3rd time       2nd & 4th time
E|------------------|------------------|
B|------------------|------------------|
G|-7----------------|-7----------------|
D|-7-(x16)--7-------|-7-(x16)-5------7-|
A|-5--------7-(x16)-|-5-------5-(x8)-7-|
E|----------5-------|---------3------5-|
   *        *         *       *      *


Pre-Chorus:
 Guitar 1
                                             On 2nd time cont.
                                          Strumming till the chorus
E|------------------------------------------|----------------|
B|------------------------------------------|----------------|
G|-4--4--4-4-4------------------7--7--7-7-7-|----------------|
D|-4--4--4-4-4--5--5-5-5-5-5-5--7--7--7-7-7-|-7--7-7-7-7-7-7-|x2
A|-2--2--2-2-2--5--5-5-5-5-5-5--5--5--5-5-5-|-7--7-7-7-7-7-7-|
E|--------------3--3-3-3-3-3-3--------------|-5--5-5-5-5-5-5-|

Guitar 2
                                              On 2nd time cont.
                                          Strumming till the chorus
E|------------------------------------------|----------------|
B|------------------------------------------|----------------|
G|------------------------------7--7--7-7-7-|----------------|
D|-9--9--9-9-9--5--5-5-5-5-5-5--7--7--7-7-7-|-7--7-7-7-7-7-7-|x2
A|-9--9--9-9-9--5--5-5-5-5-5-5--5--5--5-5-5-|-7--7-7-7-7-7-7-|
E|-7--7--7-7-7--3--3-3-3-3-3-3--------------|-5--5-5-5-5-5-5-|


Chorus:
 Guitar 1
E|--------------------------------------------------------------|
B|--------------------------------------------------------------|
G|-7--7-7-7-7-7-7----------7------------------------------------|
D|-7--7-7-7-7-7-7--7--7-7--7--7--5--5-5-5-5-5-5--7--7-7-7-7-7-7-|x4
A|-5--5-5-5-5-5-5--7--7-7--5--7--5--5-5-5-5-5-5--7--7-7-7-7-7-7-|
E|-----------------5--5-5-----5--3--3-3-3-3-3-3--5--5-5-5-5-5-5-|
                                                                             Guitar 2
E|--------------------------------------------------------------|
B|--------------------------------------------------------------|
G|-7--7-7-7-7-7-7----------7------------------------------------|
D|-7--7-7-7-7-7-7--7--7-7--7--7--5--5-5-5-5-5-5--7--7-7-7-7-7-7-|x4
A|-5--5-5-5-5-5-5--7--7-7--5--7--5--5-5-5-5-5-5--7--7-7-7-7-7-7-|
E|-----------------5--5-5-----5--3--3-3-3-3-3-3--5--5-5-5-5-5-5-|


Bridge Pt.1:
 Guitar 1
E|-------------------------------|---------------------------------|--------|
B|-------------------------------|---------------------------------|--------|
G|--11-11-12-14-14-12-11-11-9-11-|-11-11-12-14-14-14-14----------9-|--11-11-|
D|--0--0--0--0--0--0--0--0--0-0--|-0--0--0--0--0--0--0--11-11-12-0-|--0--0--|
A|-------------------------------|----------------------0--0--0----|--------|
E|-------------------------------|---------------------------------|--------|

E|------------------------|-------------------|
B|------------------------|-------------------|
G|-12-14-14-14-0--0--0--0-|-------------------|
D|-0--0--0--0--12-12-11-9-|-11-11-12-14-12-11-|
A|------------------------|-0--0--0--0--0--0--|
E|------------------------|-------------------|


Bridge Pt.2:
 Guitar 1
E|-2--2-2-2-2-2-2----------2-----3--3-3-3-3-3-3-----------------|
B|-3--3-3-3-3-3-3----------3-----3--3-3-3-3-3-3-----------------|
G|-2--2-2-2-2-2-2--2--2-2--2--2--0--0-0-0-0-0-0--2--2-2-2-2-2-2-|
D|-0--0-0-0-0-0-0--2--2-2--0--2--0--0-0-0-0-0-0--2--2-2-2-2-2-2-|x4
A|-----------------0--0-0-----0--2--2-2-2-2-2-2--0--0-0-0-0-0-0-|
E|-------------------------------3--3-3-3-3-3-3-----------------|
                                                                             Guitar 2
E|--------------------------------------------------------------|
B|--------------------------------------------------------------|
G|-7--7-7-7-7-7-7----------7------------------------------------|
D|-7--7-7-7-7-7-7--7--7-7--7--7--5--5-5-5-5-5-5--7--7-7-7-7-7-7-|x4
A|-5--5-5-5-5-5-5--7--7-7--5--7--5--5-5-5-5-5-5--7--7-7-7-7-7-7-|
E|-----------------5--5-5-----5--3--3-3-3-3-3-3--5--5-5-5-5-5-5-|


Bridge Pt.3
 Guitar 1
E|-----------------------------|
B|-7-----15-----7-----5--------|
G|-7(x8)-14(x8)-7(x8)-4(x8)----|
D|-----------------------------|
A|-----------------------------|
E|-----------------------------|


Chorus:
 Guitar 1
E|--------------------------------------------------------------|
B|--------------------------------------------------------------|
G|-7--7-7-7-7-7-7----------7------------------------------------|
D|-7--7-7-7-7-7-7--7--7-7--7--7--5--5-5-5-5-5-5--7--7-7-7-7-7-7-|x4
A|-5--5-5-5-5-5-5--7--7-7--5--7--5--5-5-5-5-5-5--7--7-7-7-7-7-7-|
E|-----------------5--5-5-----5--3--3-3-3-3-3-3--5--5-5-5-5-5-5-|
                                                                             Guitar 2
E|--------------------------------------------------------------|
B|--------------------------------------------------------------|
G|-7--7-7-7-7-7-7----------7------------------------------------|
D|-7--7-7-7-7-7-7--7--7-7--7--7--5--5-5-5-5-5-5--7--7-7-7-7-7-7-|x4
A|-5--5-5-5-5-5-5--7--7-7--5--7--5--5-5-5-5-5-5--7--7-7-7-7-7-7-|
E|-----------------5--5-5-----5--3--3-3-3-3-3-3--5--5-5-5-5-5-5-|


Outro Pt.1:
 Guitar 1
E|-------------------------------|---------------------------------|--------|
B|-------------------------------|---------------------------------|--------|
G|--11-11-12-14-14-12-11-11-9-11-|-11-11-12-14-14-14-14----------9-|--11-11-|
D|--0--0--0--0--0--0--0--0--0-0--|-0--0--0--0--0--0--0--11-11-12-0-|--0--0--|
A|-------------------------------|----------------------0--0--0----|--------|
E|-------------------------------|---------------------------------|--------|

E|------------------------|-------------------|
B|------------------------|-------------------|
G|-12-14-14-14-0--0--0--0-|-------------------|
D|-0--0--0--0--12-12-11-9-|-11-11-12-14-12-11-|
A|------------------------|-0--0--0--0--0--0--|
E|------------------------|-------------------|

Outro Pt.2:
 Guitar 1
 Play continuously till music stops
E|---|
B|---|
G|-7-|
D|-7-|
A|-5-|
E|---|

 Guitar 2
 Play continuously till music stops
E|---|
B|---|
G|-7-|
D|-7-|
A|-5-|
E|---|
Suggest correction
Creating personal tab
Creating personal tab
You can edit any tab online and save it as your Personal.

You can edit, replace or remove any tab part or add personal notes – all changes will be seen only by you.

Personal tabs can be accessed anytime from any device, even offline.
Learn more »
comments
print report bad tab
4 comments total. Showing first comments.
0 reply
lldog98 10 Mar 30, 2013 10:57 PM

Dude this sounds so accurate keep it up

0 reply
SimounZon 129 May 13, 2013 02:21 AM

Thanks Man this sounds gooD!

+3 reply
ehbacon 528 May 23, 2013 01:08 PM

Opening is close, should be

G|--11-11-12-14-14-12-11-11-9-11-|-11-11-12-14-14-------------
D|--0--0--0--0--0--0--0--0--0-0--|-0--0--0--0--0-12-11-11-12-14
A|-------------------------------|---------------0--0--0--0--0

guest
You may want to rate the tab now too:
select rating
Wanna post a correction for this tab? Suggest correction