Oops, an error
Loading. Please wait.
We have an official Stay The Night tab made by UG professional guitarists. Check out the tab »
×
2,415 views 3 this week
4 commentsread comments
1 2 3 4 5
1 last vote to show rating
add to favorites
×
Save as Personal and add changes to this tab that will be seen only by you. Learn more ›
×
You can save this tab as Personal to edit and correct it or add notes. All changes will be seen only by you. Learn more »
launch autoscroll
font size
0
reset
how to read this tab
guitar tuner
edit
Autoscroll
slow
fast
+/-
esc
set tempo
stop
Author
Difficulty
-----------------------------------------------------------------------------
                    Stay The Night, by: Green Day
-----------------------------------------------------------------------------
Tabbed by: Ethan Bacon, and Jared Brustman
e-mail: ehbacon@att.net


Tuning: Standard

I put some lyrics in you could identify the parts, the lyrics aren't for the
whole song, if you know what I mean.

        clean-          intro/main riff: x2 times
e|--------------------------------------------------------|
B|--------------------------------------------------------|
G|-11-11-12-14-14-12-11-11-9-11---11-11-12-14-14----------|
D|--0--0--0--0--0--0--0--0-0--0----0--0--0--0--0-12-11-11-|
A|------------------------------------------------0--0--0-|
E|--------------------------------------------------------|
                                                        
e|----------------------------------------------------------|
B|----------------------------------------------------------|
G|---------11-11-12-14-14-12-0--0---0-0---------------------|
D|-12-14---0--0---0--0--0--0-12-12-10-9---11-11-12-14-12-11-|
A|--0--0----------------------------------0--0---0--0--0--0-|
E|----------------------------------------------------------|
   

        distortion-     chorus: x2 times
e|-----------------------------------------------------------------|
B|-----------------------------------------------------------------|
G|-7--7-7-7-7-7-X----------7--7-X----------------------------------|
D|-7--7-7-7-7-7-X--7--7-X--7--7-X--5--5-5-5-5-5-5/7--7-7-7-7-7-7-X-|
A|-5--5-5-5-5-5-X--7--7-X--5--5-X--5--5-5-5-5-5-5/7--7-7-7-7-7-7-X-|
E|-----------------5--5-X----------3--3-3-3-3-3-3/5--5-5-5-5-5-5-X-|
     Stay          Stay    The     Night    I don't wanna say goodbye...


                        verse: x4 times
e|----------------------------------------------------------------|
B|----------------------------------------------------------------|
G|-7--7-7-X-X-X-X-X-X-X-X-X-X-X-X---------------------------------|
D|-7--7-7-X-X-X-X-X-X-X-X-X-X-X-X--5--5-5-X-X-X-X--7--7-7-X-X-X-X-|
A|-5--5-5-X-X-X-X-X-X-X-X-X-X-X-X--5--5-5-X-X-X-X--7--7-7-X-X-X-X-|
E|---------------------------------3--3-3-X-X-X-X--5--5-5-X-X-X-X-|
   Well I ain't got much time so   I'll get to the point...


                       second verse: x2 times
e|----------------------------------------------------------------|
B|----------------------------------------------------------------|
G|-4--4-4-4-4-4-X-------------------7--7-7-7-7-7-X----------------|
D|-4--4-4-4-4-4-X--5--5-5--5-5-5-X--7--7-7-7-7-7-X--7--7-7--7-7-7-|
A|-2--2-2-2-2-2-X--5--5-5--5-5-5-X--5--5-5-5-5-5-X--7--7-7--7-7-7-|
E|-----------------3--3-3--3-3-3-X------------------5--5-5--5-5-5-|
   I gotta       know if your the  one that gotta    way...


                       solo: x2 times
e|------------------------------------------------------------|
B|------------------------------------------------------------|
G|-11--11-11-11-11-11-X--9--9-X--11--11-X--12--12-12-12-12-12-|
D|--X---X--X--X--X--X-X--X--X-X---X---X-X---X---X--X--X--X--X-|
A|--9---9--9--9--9--9-X--7--7-X---9---9-X--10--10-10-10-10-10-|
E|------------------------------------------------------------|

e|------------------------------------------------------------|
B|------------------------------------------------------------|
G|-12\9--9-X/12--12-X--11--11-11-11-11-11-11\9--9\7--7--7-7-7-|
D|--X\X--X-X/-X---X-X---X---X--X--X--X--X--X\X--X\X--X--X-X-X-|
A|-10\7--7-X/10--10-X---9---9--9--9--9--9--9\7--7\5--5--5-5-5-|
E|------------------------------------------------------------|

e|------------------------|
B|------------------------|
G|-7\6--6-6/7--7-7/9--9-9-|
D|-X\X--X-X/X--X-X/X--X-X-|
A|-5\4--4-4/5--5-5/7--7-7-|
E|------------------------|
                        third verse: x4 times
e|----------------------------------------------------------|
B|----------------------------------------------------------|
G|-11-11----11-11----11-11-12-12----12-12----12-12-11-11----|
D|-12-12-12-12-12-12-12-12-12-12-12-12-12-12-12-12-12-12-12-|
A|----------------------------------------------------------|
E|----------------------------------------------------------|
          I    gotta     know   if    your  the    one  that

e|-------------------------------------|
B|-------------------------------------|
G|-11-11----11-11-9---9----9---9-----9-|
D|-12-12-12-12-12-11-11-11-11-11-11-11-|
A|-------------------------------------|
E|-------------------------------------|
           got     away


                     outro:          (let ring)
e|----------------------------------------------------------------|
B|----------------------------------------------------------------|
G|-------------7-7-7-7-7-7-7-7-7-7-7-7-7-7-7-7-7---------------7--|
D|--(intro)----7-7-7-7-7-7-7-7-7-7-7-7-7-7-7-7-7---------------7--|
A|-------------5-5-5-5-5-5-5-5-5-5-5-5-5-5-5-5-5---------------5--|
E|----------------------------------------------------------------|             
                
                order:
        -intro
        -chorus
        -verse
        -second verse
        -chorus
        -intro (distortion)
        -solo
        -third verse
        -chorus
        -outro
        

************************************

| /   slide up
| \   slide down
| h   hammer-on
| p   pull-off
| ~   vibrato
| +   harmonic
| x   Mute note
| b   Bend
| pb  Pre-bend
| br  Bend release
| pbr Pre-bend release
| brb Bend release bend

*************************************

            
            
Suggest correction
Creating personal tab
Creating personal tab
You can edit any tab online and save it as your Personal.

You can edit, replace or remove any tab part or add personal notes – all changes will be seen only by you.

Personal tabs can be accessed anytime from any device, even offline.
Learn more »
Give kudos to tab author, rate the tab!
1 2 3 4 5
comments
print report bad tab
4 comments total. Showing first comments.
0 reply
ehbacon 528 May 24, 2013 10:03 AM

Enjoy, hope its helpful!

0 reply
ehbacon 528 May 24, 2013 10:04 AM

Enjoy, hope its helpful! If there's anything you think is wrong feel free to make a correction!

+1 reply
aavvguitar 31 Nov 18, 2013 10:02 AM

i suppose, billie joes plays

e|----------------------------------------------------------|
B|---------------------------3--3---1-0---------------------|
G|---------11-11-12-14-14-12-0--0---0-0---------------------|
D|-12-14---0--0---0--0--0--0--------------11-11-12-14-12-11-|
A|--0--0----------------------------------0--0---0--0--0--0-|
E|----------------------------------------------------------|

but it's the same

guest
You may want to rate the tab now too:
select rating
Wanna post a correction for this tab? Suggest correction