Oops, an error
Loading. Please wait.

Still Breathing Bass

version 1
version 1

Whole song

Interactive

7,729 views 120 this week
4 commentsread comments
1 2 3 4 5
x 26
add to favorites
launch autoscroll
font size
0
reset
guitar tuner
backing track
0:00
0:00
×
Best way to learn
"Still Breathing"
Autoscroll
slow
fast
+/-
esc
set tempo
stop
Author
Difficulty
------------------------------------------------------------------------------
                     Still Breathing - Green Day
------------------------------------------------------------------------------

Tabbed by: ChrisT

From the Album: Revolution Radio (2016)

Tuning: Standard

No Bass Until 0:42

Chorus
G|-----------------------------------------------------------------------|
D|-----------------------------------------------------------------------|
A|---4-4-4-4-4-4-4-4-3-3-3-3-3-3-3-3-1-1-1-1-1-1-1-1---------------------|
E|---------------------------------------------------4-4-4-4-4-4-4-4-----|

G|-----------------------------------------------------------------------|
D|-----------------------------------------------------------------------|
A|-----------------------------------------------------------------------|
E|---2-2-2-2-2-2-2-2-2-2-2-2-2-2-2-2-4-4-4-4-4-4-4-4-4-4-4-4-4-4-4-4-----|

G|-----------------------------------------------------------------------|
D|-----------------------------------------------------------------------|
A|---4-4-4-4-4-4-4-4-3-3-3-3-3-3-3-3-1-1-1-1-1-1-1-1---------------------|
E|---------------------------------------------------4-4-4-4-4-4-4-4-----|

G|----------------------------------------------------------|
D|----------------------------------------------------------|
A|----------------------------------------------------------|
E|---2-2-2-2-2-2-2-2-2-2-2-2-2-2-2-2-4-4-4-4-4-4-4-4-4------|

No Bass Until 1:39
G|---------------------------------------------------------------------------------------|
D|---------------------------------------------------------------------------------------|
A|-----------------------------------/11-11-11-11-11-11-11-11-11-11-11-11-11-11-11-11----|
E|---/9-9-9-9-9-9-9-9-9-9-9-9-9-9-9-9----------------------------------------------------|

G|------------------------------------------------------------------------|
D|------------------------------------------------------------------------|
A|---13-13-13-13-13-13-13-13-13-13-13-13-13-13-13-13-9-9-9-9-9-9-9-9-9----|
E|------------------------------------------------------------------------|

Chorus
G|-----------------------------------------------------------------------|
D|o----------------------------------------------------------------------|
A|o--4-4-4-4-4-4-4-4-3-3-3-3-3-3-3-3-1-1-1-1-1-1-1-1---------------------|
E|---------------------------------------------------4-4-4-4-4-4-4-4-----|

G|-----------------------------------------------------------------------|
D|----------------------------------------------------------------------o|
A|----------------------------------------------------------------------o|
E|---2-2-2-2-2-2-2-2-2-2-2-2-2-2-2-2-4-4-4-4-4-4-4-4-4-4-4-4-4-4-4-4-----|

Bridge                                                          Repeat x3
G|-----------------------------------------------------------------------|
D|o---------------------------------------------------------------------o|
A|o--1-1-1-1-1-1-1-1---------------------------------4-4-4-4-4-4-4-4----o|
E|-------------------4-4-4-4-4-4-4-4-2-2-2-2-2-2-2-2---------------------|

G|-----------------------------------------------------------------------------------------|
D|-----------------------------------------------------------------------------------------|
A|---1-1-1-1-1-1-1-1-3-3-3-3-3-3-3-3-------------------------------------------------------|
E|----------------------------------\2-2-2-2-2-2-2-2-2-2-2-2-2-2-2-2-4-4--4-4--4-4--4-4----|

No Bass Until 2:59

Chorus
G|-----------------------------------------------------------------------|
D|o----------------------------------------------------------------------|
A|o--4-4-4-4-4-4-4-4-3-3-3-3-3-3-3-3-1-1-1-1-1-1-1-1---------------------|
E|---------------------------------------------------4-4-4-4-4-4-4-4-----|

G|-----------------------------------------------------------------------|
D|----------------------------------------------------------------------o|
A|----------------------------------------------------------------------o|
E|---2-2-2-2-2-2-2-2-2-2-2-2-2-2-2-2-4-4-4-4-4-4-4-4-4-4-4-4-4-4-4-4-----|

G|-----------------------------------------------------------------------|
D|-----------------------------------------------------------------------|
A|---4-4-4-4-4-4-4-4-3-3-3-3-3-3-3-3-1-1-1-1-1-1-1-1---------------------|
E|---------------------------------------------------4-4-4-4-4-4-4-4-----|

G|----------------------------------------------------------|
D|----------------------------------------------------------|
A|----------------------------------------------------------|
E|---2-2-2-2-2-2-2-2-2-2-2-2-2-2-2-2-4-4-4-4-4-4-4-4-4------|
Suggest correction
comments
print report bad tab
4 comments total. Showing first comments.
0 reply
dadsspaghetti 10 Sep 29, 2016 01:48 AM

GREAT TAB! Brilliant work, accurate. Sounds Freaky, the song itself is quite easy, (Guitar/Drums/Bass) but to properly adapt, this tab does perfection!
Keep Tabbin' :D

0 reply
lucarioash1234 10 Sep 30, 2016 02:00 PM

great tab dude

0 reply
medinafelipe51 10 Nov 06, 2016 12:43 PM

Awesome and really easy to play Man, Thank you

guest
You may want to rate the tab now too:
select rating
Wanna post a correction for this tab? Suggest correction