Oops, an error
Loading. Please wait.

Still Breathing Tab

version 1
version 1

Live

  • The chords in recent versions are not correct at a... Show more

Whole song

Interactive

115 views 15 this week
no commentswrite comment
1 2 3 4 5
3 more votes to show rating
add to favorites
launch autoscroll
font size
0
reset
how to read this tab
guitar tuner
Autoscroll
slow
fast
+/-
esc
set tempo
stop
Help us to improve Ultimate-Guitar.com Take our survey!
×
Author
Difficulty
novice
About this tab version
The chords in recent versions are not correct at all. I did this tab based in a live performance of this song. Was this info helpful? Yes No
Still Breathing - Green Day

[Intro]

e|----------------|
B|----------------|
G|--10------------|
D|--11-(x8)-------|
A|--x-------------|
E|--9-------------|

[Verse 1]

e|--------------------------------------------|
B|--------------------------------------------|
G|--10-------5-------6-------6-------3--------|
D|--11-(x8)--6-(x8)--8-(x4)--6-(x4)--4-(x8)---|
A|--x--------x-------x-------x-------x--------|
E|--9--------4-------6-------4-------2--------|(x2)

[Pre-Chorus]

e|-------------------------------------|
B|-------------------------------------|
G|--10-------5-------6-------3---------|
D|--11-(x8)--6-(x8)--8-(x8)--4-(x5)----|
A|--x--------x-------x-------x---------|
E|--9--------4-------6-------2---------|

[Chorus]

e|------------------------------------------------------|
B|------------------------------------------------------|
G|--6-------6--------3----------------------------------|
D|--6-(x8)--6--(x8)--3-(x8)--6-------4--------6---------|
A|--4-------3--------1-------6-(x8)--4-(x16)--6-(x16)---|
E|---------------------------4-------2--------4---------|

e|------------------------------------------------------|
B|------------------------------------------------------|
G|--6-------6--------3----------------------------------|
D|--6-(x8)--6--(x8)--3-(x8)--6-------4--------6---------|
A|--4-------3--------1-------6-(x8)--4-(x16)--6-(x9)----|
E|---------------------------4-------2--------4---------|

[Post-Chorus]

e|----------------|
B|----------------|
G|--10------------|
D|--11-(x8)-------|
A|--x-------------|
E|--9-------------|

[Verse 2]

e|--------------------------------------------|
B|--------------------------------------------|
G|--10-------5-------6-------6-------3--------|
D|--11-(x8)--6-(x8)--8-(x4)--6-(x4)--4-(x8)---|
A|--x--------x-------x-------x-------x--------|
E|--9--------4-------6-------4-------2--------|(x2)

[Pre-Chorus]

e|-------------------------------------|
B|-------------------------------------|
G|--10-------5-------6-------3---------|
D|--11-(x8)--6-(x8)--8-(x8)--4-(x5)----|
A|--x--------x-------x-------x---------|
E|--9--------4-------6-------2---------|

[Chorus]

e|------------------------------------------------------|
B|------------------------------------------------------|
G|--6-------6--------3----------------------------------|
D|--6-(x8)--6--(x8)--3-(x8)--6-------4--------6---------|
A|--4-------3--------1-------6-(x8)--4-(x16)--6-(x16)---|
E|---------------------------4-------2--------4---------|

e|------------------------------------------------------|
B|------------------------------------------------------|
G|--6-------6--------3----------------------------------|
D|--6-(x8)--6--(x8)--3-(x8)--6-------4--------6---------|
A|--4-------3--------1-------6-(x8)--4-(x16)--6-(x16)---|
E|---------------------------4-------2--------4---------|

[Bridge]

e|------------------------------------|
B|------------------------------------|
G|--------------------------6---------|
D|--8-------6-------4-------6-(x8)----|
A|--8-(x8)--6-(x8)--4-(x8)--4---------|
E|--6-------4-------2-----------------|(x3)

e|-------------------------------------------------|
B|-------------------------------------------------|
G|--3-------5-------6------------------------------|
D|--3-(x8)--5-(x8)--6--------6-6--6-6--6-6--6-6----|
A|--1-------3-------4--------6-6--6-6--6-6--6-6----|
E|---------------------------4-4--4-4--4-4--4-4----|

e|------------------1-1-1------------------|
B|--6-6-6-----------1-1-1---11-11-11-------|
G|--6-6-6---5-5-5---1-1-1---11-11-11-------|
D|--6-6-6---6-6-6---3-3-3---11-11-11-------| I can't tab the strumming, but its easy to figure it out.
A|--4-4-4---6-6-6---3-3-3---9--9--9--------|
E|----------4-4-4---1-1-1------------------|

[Chorus]

e|------------------------------------------------------|
B|------------------------------------------------------|
G|--6-------6--------3----------------------------------|
D|--6-(x8)--6--(x8)--3-(x8)--6-------4--------6---------|
A|--4-------3--------1-------6-(x8)--4-(x16)--6-(x16)---|
E|---------------------------4-------2--------4---------|(x2)

e|------------------------------------------------------|
B|------------------------------------------------------|
G|--6-------6--------3----------------------------------|
D|--6-(x8)--6--(x8)--3-(x8)--6-------4--------6---------|
A|--4-------3--------1-------6-(x8)--4-(x16)--6-(x9)----|
E|---------------------------4-------2--------4---------|

[Outro]

e|----------------|
B|----------------|
G|--10------------|
D|--11-(x8)-------|
A|--x-------------|
E|--9-------------|



************************************

| x  Dead note

************************************
Suggest correction
Give kudos to tab author, rate the tab!
1 2 3 4 5
comments
print report bad tab
guest
You may want to rate the tab now too:
select rating
Wanna post a correction for this tab? Suggest correction