Oops, an error
Loading. Please wait.

Still Breathing Tab

version 1
version 1

Whole song

Interactive

Video

23,740 views 861 this week
1 commentread comment
1 2 3 4 5
x 26
add to favorites
launch autoscroll
font size
0
reset
how to read this tab
guitar tuner
Autoscroll
slow
fast
+/-
esc
set tempo
stop
Help us to improve Ultimate-Guitar.com Take our survey!
×
Author
Tuning
E A D G B E
For the intro/verses/outro, play the bottom note on every beat and the top note on every other beat.

[Intro]
e|---------------------------------------------------------------------------|
B|---------------------------------------------------------------------------|
G|-----10--------------------------------------------------------------------|
D|-------(x8)----------------------------------------------------------------|
A|---------------------------------------------------------------------------|
E|-----9---------------------------------------------------------------------|


[Verse] (x2)
e|---------------------------------------------------------------------------|
B|---------------------------------------------------------------------------|
G|-----10-------5--------6---------6--------3--------------------------------|
D|-------(x8)----(x8)-----(x4)------(x4)-----(x8)----------------------------|  
A|---------------------------------------------------------------------------|
E|-----9--------4--------6---------4--------2--------------------------------|
I'm like a child looking off in the horizon
I'm like an ambulance that's turning on the sirens
Oh, I'm still alive

I'm like a soldier coming home for the first time
I dodged a bullet and I walked across a landmine
Oh, I'm still alive


[Pre-Chorus]
e|---------------------------------------------------------------------------|
B|---------------------------------------------------------------------------|
G|-----10-------5--------6----------3----------------------------------------|
D|-------(x8)----(x8)-----(x8)-------(x5)------------------------------------|
A|---------------------------------------------------------------------------|
E|-----9--------4--------6----------2----------------------------------------|
Am I bleeding? Am I bleeding from the storm?
Just shine a light into the wreckage, so far away, away


[Chorus]  (x2)
e|---------------------------------------------------------------------------|
B|---------------------------------------------------------------------------|
G|----6---------6---------3--------------------------------------------------|
D|----6--(x8)---6--(x8)---3--(x8)---6----------4---------6-------------------|
A|----4---------3---------1---------6--(x8)----4--(x16)--6--(x16 first time, x9 second time)|
E|----------------------------------4----------2---------4-------------------|
Cause I'm still breathing
Cause I'm still breathing on my own
My head's above the rain and roses
Making my way, my way
Cause I'm still breathing
Cause I'm still breathing on my own
My head's above the rain and roses
Making my way, my way
My way to you

[Post-Chorus]
e|---------------------------------------------------------------------------|
B|---------------------------------------------------------------------------|
G|-----10--------------------------------------------------------------------|
D|-------(x16)----------------------------------------------------------------|
A|---------------------------------------------------------------------------|
E|-----9---------------------------------------------------------------------|

[Verse] (x2)
e|---------------------------------------------------------------------------|
B|---------------------------------------------------------------------------|
G|-----10-------5--------6---------6--------3--------------------------------|
D|-------(x8)----(x8)-----(x4)------(x4)-----(x8)----------------------------|
A|---------------------------------------------------------------------------|
E|-----9--------4--------6---------4--------2--------------------------------|
I'm like a junkie tying off for the last time
I'm like a loser that's betting on his last dime
Oh, I'm still alive

I'm like a son that was raised without a father
I'm like a mother barely keeping it together
Oh, I'm still alive

[Pre-Chorus]
e|---------------------------------------------------------------------------|
B|---------------------------------------------------------------------------|
G|-----10-------5--------6----------3----------------------------------------|
D|-------(x8)----(x8)-----(x8)-------(x5)------------------------------------|
A|---------------------------------------------------------------------------|
E|-----9--------4--------6----------2----------------------------------------|
Am I bleeding? Am I bleeding from the storm?
Just shine a light into the wreckage, so far away, away

[Chorus]  (x2)
e|---------------------------------------------------------------------------|
B|---------------------------------------------------------------------------|
G|----6---------6---------3--------------------------------------------------|
D|----6--(x8)---6--(x8)---3--(x8)---6----------4---------6-------------------|
A|----4---------3---------1---------6--(x8)----4--(x16)--6--(x16 first time, x9 second time)|
E|----------------------------------4----------2---------4-------------------|
Cause I'm still breathing
Cause I'm still breathing on my own
My head's above the rain and roses
Making my way, my way
Cause I'm still breathing
Cause I'm still breathing on my own
My head's above the rain and roses
Making my way, my way, my way

[Bridge]
e|---------------------------------------------------------------------------|
B|---------------------------------------------------------------------------|
G|---------------------------------6-----------------------------------------|   (x3)
D|---8---------6---------4---------6--(x8)-----------------------------------|    
A|---8--(x8)---6--(x8)---4--(x8)---4-----------------------------------------|
E|---6---------4---------2---------------------------------------------------|

e|---------------------------------------------------------------------------|
B|---------------------------------------------------------------------------|
G|---3---------5--------6~---------------------------------------------------|
D|---3--(x8)---5--(x8)--6~------------------6-6---6-6---6-6---6-6------------|
A|---1---------3--------4~------------------6-6---6-6---6-6---6-6------------|
E|------------------------------------------4-4---4-4---4-4---4-4------------|

e|---------------------------------------------------------------------------|
B|---------------------------11-11-11----------------------------------------|
G|---6-6-6-------------------11-11-11----------------------------------------| (x2) 
D|---6-6-6---6-6-6---3-3-3---9--9--9-----------------------------------------|
A|---4-4-4---6-6-6---3-3-3---------------------------------------------------|
E|-----------4-4-4---1-1-1---------------------------------------------------|
As I walked out on the ledge
Are you scared to dance to live?
I been running all my life
Just to find a home that's for the restless
And the truth that's in the message
Making my way, away, away


[Chorus]  (x3)
e|---------------------------------------------------------------------------|
B|---------------------------------------------------------------------------|
G|----6---------6---------3--------------------------------------------------|
D|----6--(x8)---6--(x8)---3--(x8)---6----------4---------6-------------------|
A|----4---------3---------1---------6--(x8)----4--(x16)--6--(x16 first two times, x9 third time)|
E|----------------------------------4----------2---------4-------------------|


[Outro]
e|---------------------------------------------------------------------------|
B|---------------------------------------------------------------------------|
G|-----10--------------------------------------------------------------------|
D|-------(x16)---------------------------------------------------------------|
A|---------------------------------------------------------------------------|
E|-----9---------------------------------------------------------------------|
Cause I'm still breathing
Cause I'm still breathing on my own
My head's above the rain and roses
Making my way, my way
Cause I'm still breathing
Cause I'm still breathing on my own
My head's above the rain and roses
Making my way, my way, my way
Cause I'm still breathing
Cause I'm still breathing on my own
My head's above the rain and roses
Making my way, my way
My way to you

************************************

| x   Dead note
| g   Grace note
| (n) Ghost note
| h   Hammer-on
| p   Pull-off
| r   Release
| >   Accented note
| t   Tapping
| b   Bend
| br  Bend release
| pb  Pre-bend
| pbr Pre-bend release
| /   Slide up
| \   Slide down
| ~   Vibrato
| s   Slap
| P   Pop
| PM  Palm mute
| TR  Trill
| N   Tremolo

************************************
Suggest correction
comments
print report bad tab
1 comment total.
+2 reply
mikey198885 10 Sep 23, 2016 03:37 PM

thank you so much for tabbing this! ive had this song on repeat all day i love it

guest
You may want to rate the tab now too:
select rating
Wanna post a correction for this tab? Suggest correction