Oops, an error
Loading. Please wait.

Still Breathing Bass Tab

version 2
version 2

Whole song

Interactive

538 views 27 this week
no commentswrite comment
1 2 3 4 5
2 more votes to show rating
add to favorites
launch autoscroll
font size
0
reset
guitar tuner
Autoscroll
slow
fast
+/-
esc
set tempo
stop
Help us to improve Ultimate-Guitar.com Take our survey!
×
Author
Difficulty
Tabbed by: JOSECAR55

From the Album: Revolution Radio (2016)





[Intro]

G|---------------------------------------------------------------------------|
D|---------------------------------------------------------------------------|
A|--4-4-4-4-4-4-4-4-4-4-4-4-4-4-4-4------------------------------------------|
E|---------------------------------------------------------------------------|



[Verse]

G|---------------------------------------------------------------------------|
D|---------------------------------------------------------------------------|
A|-4-4-4-4--X4---------------------------------------------------------------| X3
E|--------------4-4-4-4--X4--6-6-6-6--X2--4-4-4-4--X2--2-2-2-2--X4-----------|



[Chorus]

G|------------------------------------------------------------------------------|
D|------------------------------------------------------------------------------|
A|--4-4-4-4--X2--3-3-3-3--X2----------------------------------------------------|
E|---------------------------6-6-6-6--X2--4-4-4-4--X2--2-2-2-2-X4--4-4-4-4--X4--|

G|------------------------------------------------------------------------------|
D|------------------------------------------------------------------------------|
A|--4-4-4-4--X2--3-3-3-3--X2----------------------------------------------------|
E|---------------------------6-6-6-6--X2--4-4-4-4--X2--2-2-2-2-X4--4-4-4-4--X2--|



[Intro]

G|---------------------------------------------------------------------------|
D|---------------------------------------------------------------------------|
A|--4-4-4-4-4-4-4-4-4-4-4-4-4-4-4-4------------------------------------------|
E|---------------------------------------------------------------------------|



[Verse]

G|---------------------------------------------------------------------------|
D|---------------------------------------------------------------------------|
A|-4-4-4-4--X4---------------------------------------------------------------| X3
E|--------------4-4-4-4--X4--6-6-6-6--X2--4-4-4-4--X2--2-2-2-2--X4-----------|




[Solo]

G|------------------------------------------------------------------------------|
D|------------------------------------------------------------------------------|
A|--4-4-4-4--X2--3-3-3-3--X2----------------------------------------------------|
E|---------------------------6-6-6-6--X2--4-4-4-4--X2--2-2-2-2-X4--4-4-4-4--X4--|

G|------------------------------------------------------------------------------|
D|------------------------------------------------------------------------------|
A|--4-4-4-4--X2--3-3-3-3--X2----------------------------------------------------|
E|---------------------------6-6-6-6--X2--4-4-4-4--X2--2-2-2-2-X4--4------------|



[Final Chorus]

G|------------------------------------------------------------------------------|
D|------------------------------------------------------------------------------|
A|--4-4-4-4--X2--3-3-3-3--X2----------------------------------------------------| X3
E|---------------------------6-6-6-6--X2--4-4-4-4--X2--2-2-2-2-X4--4-4-4-4--X4--|





************************************

| x   Dead note
| g   Grace note
| (n) Ghost note
| h   Hammer-on
| p   Pull-off
| r   Release
| >   Accented note
| t   Tapping
| b   Bend
| br  Bend release
| pb  Pre-bend
| pbr Pre-bend release
| /   Slide up
| \   Slide down
| ~   Vibrato
| s   Slap
| P   Pop
| PM  Palm mute
| TR  Trill
| N   Tremolo

************************************
Suggest correction
Give kudos to tab author, rate the tab!
1 2 3 4 5
comments
print report bad tab
guest
You may want to rate the tab now too:
select rating
Wanna post a correction for this tab? Suggest correction