Oops, an error
Loading. Please wait.

Still Breathing Tab

version 2
version 2

Whole song

Interactive

Video

4,639 views 81 this week
1 commentread comment
1 2 3 4 5
x 6
add to favorites
launch autoscroll
font size
0
reset
how to read this tab
guitar tuner
Autoscroll
slow
fast
+/-
esc
set tempo
stop
Help us to improve Ultimate-Guitar.com Take our survey!
×
STILL BREATHING 

[INTRO]
e|-----------------------------------------------------|
B|-----------------------------------------------------|
G|--6-6-6-6----6-6-6-6-----6-6-6-6-----6-6-6-6---------|
D|--6-6-6-6----6-6-6-6-----6-6-6-6-----6-6-6-6---------|
A|--4-4-4-4----4-4-4-4-----4-4-4-4-----4-4-4-4---------|
E|-----------------------------------------------------|

[VERSE 1]
e|-----------------------------------------------------|
B|-----------------------------------------------------|
G|--6-6-6-6----6-6-6-6-----6-6-6-6-----6-6-6-6---------|
D|--6-6-6-6----6-6-6-6-----6-6-6-6-----6-6-6-6---------|
A|--4-4-4-4----4-4-4-4-----4-4-4-4-----4-4-4-4---------|
E|-----------------------------------------------------|
    I’M LIKE A CHILD LOOKING OFF ON THE HORIZON

e|---------------------------------------------------------|
B|---------------------------------------------------------|
G|---------------------------------------------------------|
D|--6-6-6-6-----6-6-6-6----------6-6-6-6--------6-6-6-6----|
A|--6-6-6-6-----6-6-6-6----------6-6-6-6--------6-6-6-6----|
E|--4-4-4-4-----4-4-4-4----------4-4-4-4--------4-4-4-4----|
    I’M LIKE AN AMBULANCE THAT’S TURNING ON THE SIRENS

e|---------------------------------------------------------|
B|---------------------------------------------------------|
G|---------------------------------------------------------|
D|--8-8-8-8------8-8-8-8----------6-6-6-6-------6-6-6-6----|
A|--8-8-8-8------8-8-8-8----------6-6-6-6-------6-6-6-6----|
E|--6-6-6-6------6-6-6-6----------4-4-4-4-------4-4-4-4----|
    OH                            I’M STILL

e|--------------------------------------------------------|
B|--------------------------------------------------------|
G|--------------------------------------------------------|
D|--4-4-4-4------4-4-4-4----------4-4-4-4-------4-4-4-4---|
A|--4-4-4-4------4-4-4-4----------4-4-4-4-------4-4-4-4---|
E|--2-2-2-2------2-2-2-2----------2-2-2-2-------2-2-2-2---|
    ALIVE

e|-----------------------------------------------------|
B|-----------------------------------------------------|
G|--6-6-6-6----6-6-6-6--------6-6-6-6-------6-6-6-6----|
D|--6-6-6-6----6-6-6-6--------6-6-6-6-------6-6-6-6----|
A|--4-4-4-4----4-4-4-4--------4-4-4-4-------4-4-4-4----|
E|-----------------------------------------------------|
    I’M LIKE A SOLDIER  COMING HOME FOR THE FIRST TIME

e|-----------------------------------------------------|
B|-----------------------------------------------------|
G|-----------------------------------------------------|
D|--6-6-6-6-----6-6-6-6-----6-6-6-6---------6-6-6-6----|
A|--6-6-6-6-----6-6-6-6-----6-6-6-6---------6-6-6-6----|
E|--4-4-4-4-----4-4-4-4-----4-4-4-4---------4-4-4-4----|
    I DODGED A BULLET AND I WALKED ACROSS A LANDMINE

e|-----------------------------------------------|
B|-----------------------------------------------|
G|-----------------------------------------------|
D|--8-8-8-8----8-8-8-8----6-6-6-6----6-6-6-6-----|
A|--8-8-8-8----8-8-8-8----6-6-6-6----6-6-6-6-----|
E|--6-6-6-6----6-6-6-6----4-4-4-4----4-4-4-4-----|
    OH                    I’M STILL

e|-----------------------------------------------|
B|-----------------------------------------------|
G|-----------------------------------------------|
D|--4-4-4-4----4-4-4-4----4-4-4-4----4-4-4-4-----|
A|--4-4-4-4----4-4-4-4----4-4-4-4----4-4-4-4-----|
E|--2-2-2-2----2-2-2-2----2-2-2-2----2-2-2-2-----|
    ALIVE                            AM I

[PRE-CHORUS]
e|-----------------------------------------------------|
B|-----------------------------------------------------|
G|--6-6-6-6----6-6-6-6-----6-6-6-6-----6-6-6-6---------|
D|--6-6-6-6----6-6-6-6-----6-6-6-6-----6-6-6-6---------|
A|--4-4-4-4----4-4-4-4-----4-4-4-4-----4-4-4-4---------|
E|-----------------------------------------------------|
    BLEEDING                           AM I

e|---------------------------------------------------------|
B|---------------------------------------------------------|
G|---------------------------------------------------------|
D|--6-6-6-6-----6-6-6-6----------6-6-6-6--------6-6-6-6----|
A|--6-6-6-6-----6-6-6-6----------6-6-6-6--------6-6-6-6----|
E|--4-4-4-4-----4-4-4-4----------4-4-4-4--------4-4-4-4----|
    BLEEDING FROM THE STORM

e|-----------------------------------------------|
B|-----------------------------------------------|
G|-----------------------------------------------|
D|--8-8-8-8----8-8-8-8----8-8-8-8----8-8-8-8-----|
A|--8-8-8-8----8-8-8-8----8-8-8-8----8-8-8-8-----|
E|--6-6-6-6----6-6-6-6----6-6-6-6----6-6-6-6-----|
    JUST SHINE A LIGHT    INTO THE   WRECKAGE

e|----------------------------------------|
B|----------------------------------------|
G|----------------------------------------|
D|--4-4-4-4-----4-4-4-4-4-----------------|
A|--4-4-4-4-----4-4-4-4-4-----------------|
E|--2-2-2-2-----2-2-2-2-2-----------------|
    SO FAR AWAY AWAY       CAUSE I’M STILL

[CHORUS]
e|----------------------------------------------------------------------------------|
B|----------------------------------------------------------------------------------|
G|--6-6-6-6--6-6-6-6----6-6-6-6--6-6-6-6--------------------------------------------|
D|--6-6-6-6--6-6-6-6----6-6-6-6--6-6-6-6---8-8-8-8--8-8-8-8-----6-6-6-6--6-6-6-6----|
A|--4-4-4-4--4-4-4-4----3-3-3-3--3-3-3-3---8-8-8-8--8-8-8-8-----6-6-6-6--6-6-6-6----|
E|-----------------------------------------6-6-6-6--6-6-6-6-----4-4-4-4--4-4-4-4----|
    BREATHING           CAUSE I’M STILL    BREATHING ON MY      OWN

e|-----------------------------------------------------------------------------|
B|-----------------------------------------------------------------------------|
G|-----------------------------------------------------------------------------|
D|--4-4-4-4--4-4-4-4--4-4-4-4--4-4-4-4---6-6-6-6--6-6-6-6--6-6-6-6--6-6-6-6----|
A|--4-4-4-4--4-4-4-4--4-4-4-4--4-4-4-4---6-6-6-6--6-6-6-6--6-6-6-6--6-6-6-6----|
E|--2-2-2-2--2-2-2-2--2-2-2-2--2-2-2-2---4-4-4-4--4-4-4-4--4-4-4-4--4-4-4-4----|
    MY HEADS ABOVE THE RAIN AND ROSES    MAKING MY WAY AWAY      CAUSE I’M STILL

e|---------------------------------------------------------------------------------|
B|---------------------------------------------------------------------------------|
G|--6-6-6-6--6-6-6-6----6-6-6-6--6-6-6-6-------------------------------------------|
D|--6-6-6-6--6-6-6-6----6-6-6-6--6-6-6-6---8-8-8-8--8-8-8-8----6-6-6-6--6-6-6-6----|
A|--4-4-4-4--4-4-4-4----3-3-3-3--3-3-3-3---8-8-8-8--8-8-8-8----6-6-6-6--6-6-6-6----|
E|-----------------------------------------6-6-6-6--6-6-6-6----4-4-4-4--4-4-4-4----|
   BREATHING            CAUSE I’M STILL    BREATHING ON MY     OWN

e|--------------------------------------------------------------------------|
B|--------------------------------------------------------------------------|
G|--------------------------------------------------------------------------|
D|--4-4-4-4--4-4-4-4--4-4-4-4--4-4-4-4---6-6-6-6-6-6-6-6--------------------|
A|--4-4-4-4--4-4-4-4--4-4-4-4--4-4-4-4---6-6-6-6-6-6-6-6--------------------|
E|--2-2-2-2--2-2-2-2--2-2-2-2--2-2-2-2---4-4-4-4-4-4-4-4--------------------|
    MY HEADS ABOVE THE RAIN AND ROSES    MAKING MY WAY AWAY   MY WAY TO YOU

[POST CHORUS]
e|------------------------------------------------------------------------------|
B|------------------------------------------------------------------------------|
G|--6-6-6-6--6-6-6-6--6-6-6-6--6-6-6-6---6-6-6-6--6-6-6-6--6-6-6-6--6-6-6-6-----|
D|--6-6-6-6--6-6-6-6--6-6-6-6--6-6-6-6---6-6-6-6--6-6-6-6--6-6-6-6--6-6-6-6-----|
A|--4-4-4-4--4-4-4-4--4-4-4-4--4-4-4-4---4-4-4-4--4-4-4-4--4-4-4-4--4-4-4-4-----|
E|------------------------------------------------------------------------------|

[VERSE}
e|-----------------------------------------------------|
B|-----------------------------------------------------|
G|--6-6-6-6----6-6-6-6-----6-6-6-6-----6-6-6-6---------|
D|--6-6-6-6----6-6-6-6-----6-6-6-6-----6-6-6-6---------|
A|--4-4-4-4----4-4-4-4-----4-4-4-4-----4-4-4-4---------|
E|-----------------------------------------------------|
    I’M LIKE A JUNKIE TYING OFF FOR THE LAST TIME

e|-----------------------------------------------------|
B|-----------------------------------------------------|
G|-----------------------------------------------------|
D|--6-6-6-6-----6-6-6-6-----6-6-6-6--------6-6-6-6-----|
A|--6-6-6-6-----6-6-6-6-----6-6-6-6--------6-6-6-6-----|
E|--4-4-4-4-----4-4-4-4-----4-4-4-4--------4-4-4-4-----|
    I’M LIKE A LOSER THAT’S BETTING ON HIS LAST DIME

e|------------------------------------------------|
B|------------------------------------------------|
G|------------------------------------------------|
D|--8-8-8-8----8-8-8-8----6-6-6-6-----6-6-6-6-----|
A|--8-8-8-8----8-8-8-8----6-6-6-6-----6-6-6-6-----|
E|--6-6-6-6----6-6-6-6----4-4-4-4-----4-4-4-4-----|
    OH                    I’M STILL

e|------------------------------------------------|
B|------------------------------------------------|
G|------------------------------------------------|
D|--4-4-4-4----4-4-4-4----4-4-4-4----4-4-4-4------|
A|--4-4-4-4----4-4-4-4----4-4-4-4----4-4-4-4------|
E|--2-2-2-2----2-2-2-2----2-2-2-2----2-2-2-2------|
    ALIVE

e|-----------------------------------------------------|
B|-----------------------------------------------------|
G|--6-6-6-6----6-6-6-6-----6-6-6-6-----6-6-6-6---------|
D|--6-6-6-6----6-6-6-6-----6-6-6-6-----6-6-6-6---------|
A|--4-4-4-4----4-4-4-4-----4-4-4-4-----4-4-4-4---------|
E|-----------------------------------------------------|
    I’M LIKE A SON THAT WAS RAISED WITHOUT A FATHER

e|-----------------------------------------------------|
B|-----------------------------------------------------|
G|-----------------------------------------------------|
D|--6-6-6-6-----6-6-6-6-----6-6-6-6--------6-6-6-6-----|
A|--6-6-6-6-----6-6-6-6-----6-6-6-6--------6-6-6-6-----|
E|--4-4-4-4-----4-4-4-4-----4-4-4-4--------4-4-4-4-----|
    I’M LIKE A MOTHER BARELY KEEPING IT TOGETHER

e|------------------------------------------------|
B|------------------------------------------------|
G|------------------------------------------------|
D|--8-8-8-8----8-8-8-8----6-6-6-6-----6-6-6-6-----|
A|--8-8-8-8----8-8-8-8----6-6-6-6-----6-6-6-6-----|
E|--6-6-6-6----6-6-6-6----4-4-4-4-----4-4-4-4-----|
    OH                    I’M STILL

e|------------------------------------------------|
B|------------------------------------------------|
G|------------------------------------------------|
D|--4-4-4-4----4-4-4-4----4-4-4-4----4-4-4-4------|
A|--4-4-4-4----4-4-4-4----4-4-4-4----4-4-4-4------|
E|--2-2-2-2----2-2-2-2----2-2-2-2----2-2-2-2------|
    ALIVE                            AM I

[PRE-CHORUS]
e|-----------------------------------------------------|
B|-----------------------------------------------------|
G|--6-6-6-6----6-6-6-6-----6-6-6-6-----6-6-6-6---------|
D|--6-6-6-6----6-6-6-6-----6-6-6-6-----6-6-6-6---------|
A|--4-4-4-4----4-4-4-4-----4-4-4-4-----4-4-4-4---------|
E|-----------------------------------------------------|
    BLEEDING                           AM I

e|---------------------------------------------------------|
B|---------------------------------------------------------|
G|---------------------------------------------------------|
D|--6-6-6-6-----6-6-6-6----------6-6-6-6--------6-6-6-6----|
A|--6-6-6-6-----6-6-6-6----------6-6-6-6--------6-6-6-6----|
E|--4-4-4-4-----4-4-4-4----------4-4-4-4--------4-4-4-4----|
    BLEEDING FROM THE STORM

e|-----------------------------------------------|
B|-----------------------------------------------|
G|-----------------------------------------------|
D|--8-8-8-8----8-8-8-8----8-8-8-8----8-8-8-8-----|
A|--8-8-8-8----8-8-8-8----8-8-8-8----8-8-8-8-----|
E|--6-6-6-6----6-6-6-6----6-6-6-6----6-6-6-6-----|
    JUST SHINE A LIGHT    INTO THE   WRECKAGE

e|----------------------------------------|
B|----------------------------------------|
G|----------------------------------------|
D|--4-4-4-4-----4-4-4-4-4-----------------|
A|--4-4-4-4-----4-4-4-4-4-----------------|
E|--2-2-2-2-----2-2-2-2-2-----------------|
    SO FAR AWAY AWAY       CAUSE I’M STILL

[CHORUS]
e|----------------------------------------------------------------------------------|
B|----------------------------------------------------------------------------------|
G|--6-6-6-6--6-6-6-6----6-6-6-6--6-6-6-6--------------------------------------------|
D|--6-6-6-6--6-6-6-6----6-6-6-6--6-6-6-6---8-8-8-8--8-8-8-8-----6-6-6-6--6-6-6-6----|
A|--4-4-4-4--4-4-4-4----3-3-3-3--3-3-3-3---8-8-8-8--8-8-8-8-----6-6-6-6--6-6-6-6----|
E|-----------------------------------------6-6-6-6--6-6-6-6-----4-4-4-4--4-4-4-4----|
    BREATHING           CAUSE I’M STILL    BREATHING ON MY      OWN

e|-----------------------------------------------------------------------------|
B|-----------------------------------------------------------------------------|
G|-----------------------------------------------------------------------------|
D|--4-4-4-4--4-4-4-4--4-4-4-4--4-4-4-4---6-6-6-6--6-6-6-6--6-6-6-6--6-6-6-6----|
A|--4-4-4-4--4-4-4-4--4-4-4-4--4-4-4-4---6-6-6-6--6-6-6-6--6-6-6-6--6-6-6-6----|
E|--2-2-2-2--2-2-2-2--2-2-2-2--2-2-2-2---4-4-4-4--4-4-4-4--4-4-4-4--4-4-4-4----|
    MY HEADS ABOVE THE RAIN AND ROSES    MAKING MY WAY AWAY      CAUSE I’M STILL

e|---------------------------------------------------------------------------------|
B|---------------------------------------------------------------------------------|
G|--6-6-6-6--6-6-6-6----6-6-6-6--6-6-6-6-------------------------------------------|
D|--6-6-6-6--6-6-6-6----6-6-6-6--6-6-6-6---8-8-8-8--8-8-8-8----6-6-6-6--6-6-6-6----|
A|--4-4-4-4--4-4-4-4----3-3-3-3--3-3-3-3---8-8-8-8--8-8-8-8----6-6-6-6--6-6-6-6----|
E|-----------------------------------------6-6-6-6--6-6-6-6----4-4-4-4--4-4-4-4----|
    BREATHING           CAUSE I’M STILL    BREATHING ON MY     OWN

e|--------------------------------------------------------------------------------|
B|--------------------------------------------------------------------------------|
G|--------------------------------------------------------------------------------|
D|--4-4-4-4--4-4-4-4--4-4-4-4--4-4-4-4---6-6-6-6--6-6-6-6--6-6-6-6--6-6-6-6-------|
A|--4-4-4-4--4-4-4-4--4-4-4-4--4-4-4-4---6-6-6-6--6-6-6-6--6-6-6-6--6-6-6-6-------|
E|--2-2-2-2--2-2-2-2--2-2-2-2--2-2-2-2---4-4-4-4--4-4-4-4--4-4-4-4--4-4-4-4-------|
    MY HEADS ABOVE THE RAIN AND ROSES    MAKING MY WAY AWAY AWAY

[BRIDGE]
e|------------------------------------------------------------------------------|
B|------------------------------------------------------------------------------|
G|-----------------------------------------------------------6-6-6-6--6-6-6-6---|
D|--8-8-8-8--8-8-8-8---6-6-6-6--6-6-6-6---4-4-4-4--4-4-4-4---6-6-6-6--6-6-6-6---|
A|--8-8-8-8--8-8-8-8---6-6-6-6--6-6-6-6---4-4-4-4--4-4-4-4---4-4-4-4--4-4-4-4---|
E|--6-6-6-6--6-6-6-6---4-4-4-4--4-4-4-4---2-2-2-2--2-2-2-2----------------------|
             AS I      WALKED OUT         ON THE             LEDGE

e|------------------------------------------------------------------------------|
B|------------------------------------------------------------------------------|
G|-----------------------------------------------------------6-6-6-6--6-6-6-6---|
D|--8-8-8-8--8-8-8-8---6-6-6-6--6-6-6-6---4-4-4-4--4-4-4-4---6-6-6-6--6-6-6-6---|
A|--8-8-8-8--8-8-8-8---6-6-6-6--6-6-6-6---4-4-4-4--4-4-4-4---4-4-4-4--4-4-4-4---|
E|--6-6-6-6--6-6-6-6---4-4-4-4--4-4-4-4---2-2-2-2--2-2-2-2----------------------|
             ARE YOU   SCARED TO          DEATH TO           LIVE

e|------------------------------------------------------------------------------|
B|------------------------------------------------------------------------------|
G|-----------------------------------------------------------6-6-6-6--6-6-6-6---|
D|--8-8-8-8--8-8-8-8---6-6-6-6--6-6-6-6---4-4-4-4--4-4-4-4---6-6-6-6--6-6-6-6---|
A|--8-8-8-8--8-8-8-8---6-6-6-6--6-6-6-6---4-4-4-4--4-4-4-4---4-4-4-4--4-4-4-4---|
E|--6-6-6-6--6-6-6-6---4-4-4-4--4-4-4-4---2-2-2-2--2-2-2-2----------------------|
             I’VE BEEN RUNNING            ALL MY             LIFE

e|-----------------------------------------------|
B|-----------------------------------------------|
G|-----------------------------------------------|
D|--8-8-8-8--8-8-8-8---6-6-6-6--6-6-6-6---4------|
A|--8-8-8-8--8-8-8-8---6-6-6-6--6-6-6-6---4------|
E|--6-6-6-6--6-6-6-6---4-4-4-4--4-4-4-4---2------|
   JUST TO FIND A HOME THAT’S FOR THE RESTLESS
   AND THE TRUTH THAT’S IN THE MESSAGE

e|------------------------------------|
B|------------------------------------|
G|------------------------------------|
D|--6-6-----6-6-----6-6----6-6--------|
A|--6-6-----6-6-----6-6----6-6--------|
E|--4-4-----4-4-----4-4----4-4--------|
    MAKING  MY WAY  AWAY   AWAY

e|------------------------------------------------------------------------|
B|------------------------------------------------------------------------|
G|--6-6-6-------------------11-11-11---6-6-6-------------------11-11-11---|
D|--6-6-6---6-6-6---4-4-4---11-11-11---6-6-6---6-6-6---4-4-4---11-11-11---|
A|--4-4-4---6-6-6---4-4-4---9--9--9----4-4-4---6-6-6---4-4-4---9--9--9----|
E|----------4-4-4---2-2-2----------------------4-4-4---2-2-2--------------|

[CHORUS]
e|----------------------------------------------------------------------------------|
B|----------------------------------------------------------------------------------|
G|--6-6-6-6--6-6-6-6----6-6-6-6--6-6-6-6--------------------------------------------|
D|--6-6-6-6--6-6-6-6----6-6-6-6--6-6-6-6---8-8-8-8--8-8-8-8-----6-6-6-6--6-6-6-6----|
A|--4-4-4-4--4-4-4-4----3-3-3-3--3-3-3-3---8-8-8-8--8-8-8-8-----6-6-6-6--6-6-6-6----|
E|-----------------------------------------6-6-6-6--6-6-6-6-----4-4-4-4--4-4-4-4----|
    BREATHING           CAUSE I’M STILL    BREATHING ON MY      OWN

e|-----------------------------------------------------------------------------|
B|-----------------------------------------------------------------------------|
G|-----------------------------------------------------------------------------|
D|--4-4-4-4--4-4-4-4--4-4-4-4--4-4-4-4---6-6-6-6--6-6-6-6--6-6-6-6--6-6-6-6----|
A|--4-4-4-4--4-4-4-4--4-4-4-4--4-4-4-4---6-6-6-6--6-6-6-6--6-6-6-6--6-6-6-6----|
E|--2-2-2-2--2-2-2-2--2-2-2-2--2-2-2-2---4-4-4-4--4-4-4-4--4-4-4-4--4-4-4-4----|
    MY HEADS ABOVE THE RAIN AND ROSES    MAKING MY WAY AWAY AWAY  CAUSE I’M STILL

e|---------------------------------------------------------------------------------|
B|---------------------------------------------------------------------------------|
G|--6-6-6-6--6-6-6-6----6-6-6-6--6-6-6-6-------------------------------------------|
D|--6-6-6-6--6-6-6-6----6-6-6-6--6-6-6-6---8-8-8-8--8-8-8-8----6-6-6-6--6-6-6-6----|
A|--4-4-4-4--4-4-4-4----3-3-3-3--3-3-3-3---8-8-8-8--8-8-8-8----6-6-6-6--6-6-6-6----|
E|-----------------------------------------6-6-6-6--6-6-6-6----4-4-4-4--4-4-4-4----|
    BREATHING           CAUSE I’M STILL    BREATHING ON MY     OWN

e|--------------------------------------------------------------------------------|
B|--------------------------------------------------------------------------------|
G|--------------------------------------------------------------------------------|
D|--4-4-4-4--4-4-4-4--4-4-4-4--4-4-4-4---6-6-6-6--6-6-6-6--6-6-6-6--6-6-6-6-------|
A|--4-4-4-4--4-4-4-4--4-4-4-4--4-4-4-4---6-6-6-6--6-6-6-6--6-6-6-6--6-6-6-6-------|
E|--2-2-2-2--2-2-2-2--2-2-2-2--2-2-2-2---4-4-4-4--4-4-4-4--4-4-4-4--4-4-4-4-------|
    MY HEADS ABOVE THE RAIN AND ROSES     MAKING MY WAY AWAY AWAY

e|---------------------------------------------------------------------------------|
B|---------------------------------------------------------------------------------|
G|--6-6-6-6--6-6-6-6----6-6-6-6--6-6-6-6-------------------------------------------|
D|--6-6-6-6--6-6-6-6----6-6-6-6--6-6-6-6---8-8-8-8--8-8-8-8----6-6-6-6--6-6-6-6----|
A|--4-4-4-4--4-4-4-4----3-3-3-3--3-3-3-3---8-8-8-8--8-8-8-8----6-6-6-6--6-6-6-6----|
E|-----------------------------------------6-6-6-6--6-6-6-6----4-4-4-4--4-4-4-4----|
    BREATHING           CAUSE I’M STILL    BREATHING ON MY     OWN

e|-----------------------------------------------------------------|
B|-----------------------------------------------------------------|
G|-----------------------------------------------------------------|
D|--4-4-4-4--4-4-4-4--4-4-4-4--4-4-4-4---6-6-6-6--6-6-6-6-6--------|
A|--4-4-4-4--4-4-4-4--4-4-4-4--4-4-4-4---6-6-6-6--6-6-6-6-6--------|
E|--2-2-2-2--2-2-2-2--2-2-2-2--2-2-2-2---4-4-4-4--4-4-4-4-4--------|
    MY HEADS ABOVE THE RAIN AND ROSES     MAKING MY WAY AWAY AWAY

[OUTRO]
e|-----------------------------------------------------|
B|-----------------------------------------------------|
G|--6-6-6-6----6-6-6-6-----6-6-6-6-----6-6-6-6---------|
D|--6-6-6-6----6-6-6-6-----6-6-6-6-----6-6-6-6---------|
A|--4-4-4-4----4-4-4-4-----4-4-4-4-----4-4-4-4---------|
E|-----------------------------------------------------|

e|-----------------------------------------------------|
B|-----------------------------------------------------|
G|--6-6-6-6----6-6-6-6-----6-6-6-6-----6-6-6-6---------|
D|--6-6-6-6----6-6-6-6-----6-6-6-6-----6-6-6-6---------|
A|--4-4-4-4----4-4-4-4-----4-4-4-4-----4-4-4-4---------|
E|-----------------------------------------------------|
Suggest correction
comments
print report bad tab
1 comment total.
0 reply
manutzsong1 10 Sep 29, 2016 06:34 AM

really like this tab.

love this

addict to this song

guest
You may want to rate the tab now too:
select rating
Wanna post a correction for this tab? Suggest correction