Oops, an error
Loading. Please wait.
We have Chord Pro version of Still Breathing.
It's the closest thing you can get to the original song and it has interactive parts. Check out the tab »
×
1,117 views 15 this week
no commentswrite comment
1 2 3 4 5
x 4
add to favorites
launch autoscroll
font size
0
reset
guitar tuner
backing track
0:00
0:00
Autoscroll
slow
fast
+/-
esc
set tempo
stop
Author
Difficulty
novice
Chorus
G|-----------------|-----------------|-----------------|-----------------|
D|-----------------|-----------------|-----------------|-----6-----6---6-|
A|-4-4-4-4-4-4-4-4-|-3-3-3-3-3-3-3-3-|-1-1-1-1-1-1-1-1-|-----------------|
E|-----------------|-----------------|-----------------|-4-4---4-4---4---|

G|-----------------|-----------------|-----------------|-----------------|
D|-4-4-4-4-4-4-4-4-|-3h4-4-4-4-4-4-6-|-----------------|-----------------|
A|-----------------|-----------------|-----------------|-----------------|
E|-----------------|-----------------|-4-4-4-4-4-4-4-4-|-4-4-4-4-4-4-4-4-|

G|-----------------|-----------------|-----------------|-----------------|
D|-----------------|-----------------|-----------------|-----------------|
A|-4-4-4-4-4-4-4-4-|-3-3-3-3-3-3-3-3-|-1-1-1-1-1-1-1-1-|-----------------|
E|-----------------|-----------------|-----------------|-4-4-4-4-4-4-4-4-|

G|-----------------|-----------------|-----------------|-----------------|
D|-4-4-4-4-4-4-4-4-|-3h4-4-4-4-4-4-6-|-6-6-6-6-6-6-6-6-|-6---------------|
A|-----------------|-----------------|-----------------|-----------------|
E|-----------------|-----------------|-----------------|-----------------|


Verse - Rest

Pre Chorus
G|-----------------|-----------------|------------------------|------------------------|
D|-----------------|-----------------|------------------------|------------------------|
A|-4-4-4-4-4-4-4-4-|-4-4-4-4-4-4-4-4/|-11-11-11-11-11-11-11-11|-11-11-11-11-11-11-11-11|
E|-----------------|-----------------|------------------------|------------------------|

G|-------------------------|-------------------------|-----------------|---------------|
D|-------------------------|-------------------------|-----------------|---------------|
A|-13-13-13-13-13-13-13-13-|-13-13-13-13-13-13-13-13-|-9-9-9-9-9-9-9-9-|-9-------------|
E|-------------------------|-------------------------|-----------------|---------------|

Chorus
G|-----------------|-----------------|-----------------|-----------------|
D|-----------------|-----------------|-----------------|-----6-----6---6-|
A|-4-4-4-4-4-4-4-4-|-3-3-3-3-3-3-3-3-|-1-1-1-1-1-1-1-1-|-----------------|
E|-----------------|-----------------|-----------------|-4-4---4-4---4---|

G|-----------------|-----------------|-----------------|-----------------|
D|-4-4-4-4-4-4-4-4-|-3h4-4-4-4-4-4-6-|-----------------|-----------------|
A|-----------------|-----------------|-----------------|-----------------|
E|-----------------|-----------------|-4-4-4-4-4-4-4-4-|-4-4-4-4-4-4-4-4-|

G|-----------------|-----------------|-----------------|-----------------|
D|-----------------|-----------------|-----------------|-----------------|
A|-4-4-4-4-4-4-4-4-|-3-3-3-3-3-3-3-3-|-1-1-1-1-1-1-1-1-|-----------------|
E|-----------------|-----------------|-----------------|-4-4-4-4-4-4-4-4-|

G|-----------------|-----------------|-----------------|-----------------|
D|-4-4-4-4-4-4-4-4-|-3h4-4-4-4-4-4-6-|-----------------|-----------------|
A|-----------------|-----------------|-----------------|-----------------|
E|-----------------|-----------------|-4-4-4-4-4-4-4-4-|-4-4-4-4-4-4-4-4-|


Bridge
G|-----------------|-----------------|-----------------|-----------------|
D|-----------------|-----------------|-----------------|-----------------|
A|-----------------|-----------------|-----------------|-4-4-4-4-4-4-4-4-|
E|-6-6-6-6-6-6-6-6-|-4-4-4-4-4-4-4-4-|-2-2-2-2-2-2-2-2-|-----------------|

G|-----------------|-----------------|-----------------|-----------------|
D|-----------------|-----------------|-----------------|-----------------|
A|-----------------|-----------------|-----------------|-4-4-4-4-4-4-4-4-|
E|-6-6-6-6-6-6-6-6-|-4-4-4-4-4-4-4-4-|-2-2-2-2-2-2-2-2-|-----------------|

G|-------------------------|-------------------------|-----------------|-----------------|
D|-------------------------|-------------------------|-----------------|-----------------|
A|-13-13-13-13-13-13-13-13-|-11-11-11-11-11-11-11-11-|-9-9-9-9-9-9-9-9-|-4-4-4-4-4-4-4-4-|
E|-------------------------|-------------------------|-----------------|-----------------|

G|-----------------|-----------------|-----------------|-----------------|
D|-----------------|-----------------|-----------------|-----------------|
A|-----------------|-----------------|-----------------|-----------------|
E|-6-6-6-6-6-6-6-6-|-8-8-8-8-8-8-8-8-|-2-2-2-2-2-2-2-2-|-2-2-2-2-2-2-2-2-|

G|-----------------|-----------------|
D|-----------------|-----------------|
A|-----------------|-----------------|
E|-4-4---4-4---4-4-|---4-4-----------|


Chorus
G|-----------------|-----------------|-----------------|-----------------|
D|-----------------|-----------------|-----------------|-----6-----6---6-|
A|-4-4-4-4-4-4-4-4-|-3-3-3-3-3-3-3-3-|-1-1-1-1-1-1-1-1-|-----------------|
E|-----------------|-----------------|-----------------|-4-4---4-4---4---|

G|-----------------|-----------------|-----------------|-----------------|
D|-4-4-4-4-4-4-4-4-|-3h4-4-4-4-4-4-6-|-----------------|-----------------|
A|-----------------|-----------------|-----------------|-----------------|
E|-----------------|-----------------|-4-4-4-4-4-4-4-4-|-4-4-4-4-4-4-4-4-|

G|-----------------|-----------------|-----------------|-----------------|
D|-----------------|-----------------|-----------------|-----6-----6---6-|
A|-4-4-4-4-4-4-4-4-|-3-3-3-3-3-3-3-3-|-1-1-1-1-1-1-1-1-|-----------------|
E|-----------------|-----------------|-----------------|-4-4---4-4---4---|

G|-----------------|-----------------|-----------------|-----------------|
D|-4-4-4-4-4-4-4-4-|-3h4-4-4-4-4-4-6-|-----------------|-----------------|
A|-----------------|-----------------|-----------------|-----------------|
E|-----------------|-----------------|-4-4-4-4-4-4-4-4-|-4-4-4-4-4-4-4-4-|

G|-----------------|-----------------|-----------------|-----------------|
D|-----------------|-----------------|-----------------|-----6-----6---6-|
A|-4-4-4-4-4-4-4-4-|-3-3-3-3-3-3-3-3-|-1-1-1-1-1-1-1-1-|-----------------|
E|-----------------|-----------------|-----------------|-4-4---4-4---4---|

G|-----------------|-----------------|-----------------|-----------------|
D|-4-4-4-4-4-4-4-4-|-3h4-4-4-4-4-4-6-|-----------------|-----------------|
A|-----------------|-----------------|-----------------|-----------------|
E|-----------------|-----------------|-4-4-4-4-4-4-4-4-|-4---------------|
Suggest correction
comments
print report bad tab
guest
You may want to rate the tab now too:
select rating
Wanna post a correction for this tab? Suggest correction