Oops, an error
Loading. Please wait.

Stop When The Red Lights Flash bass

version 1
version 1

Whole song

Interactive

2,707 views 6 this week
no commentswrite comment
1 2 3 4 5
x 3
add to favorites
×
Save as Personal and add changes to this tab that will be seen only by you. Learn more ›
×
You can save this tab as Personal to edit and correct it or add notes. All changes will be seen only by you. Learn more »
launch autoscroll
font size
0
reset
guitar tuner
edit
Autoscroll
slow
fast
+/-
esc
set tempo
stop
This is probably not all right, but I tabbed it from this video and it went out pretty great:)
http://www.youtube.com/watch?v=dGUwFM5j918&feature=player_embedded

Intro
G|-------------|
D|-------------|
A|--5----------|x4
E|-5-5-3-5-3-5-|

Then this
G|---------------------------------------------------------------|
D|---------------------------------------------------------------|
A|-5-5-5-5-5-5-5-5-5-5-5-5-5-5-5-0-5-5-5-5-5-5-5-5-5-5-5-5-5-5-5-|
E|---------------------------------------------------------------|

G|---------------------|
D|---------------------|
A|--5---------5--------|x2
E|-5-5-5-3-5-5-5-5-3-5-|

G|---------------------------------------------------------------|
D|---------------------------------------------------------------|
A|-7-7-7-7-7-7-7-7-7-7-7-7-7-7-7-0-5-5-5-5-5-5-5-5-5-5-5-5-5-5-5-|
E|---------------------------------------------------------------|

G|-----------------------------------------|
D|-----------------------------------------|
A|--5---------5---------5---------5--------|
E|-5-5-5-3-5-5-5-5-3-5-5-5-5-3-5-5-5-5-3-5-|
Play this whole part two times.

Guitar solo
G|---------------------------------------------------------------|
D|---------------------------------------------------------------|
A|-5-5-5-5-5-5-5-5-5-5-5-5-5-5-5-0-5-5-5-5-5-5-5-5-5-5-5-5-5-5-5-|
E|---------------------------------------------------------------|

G|---------------------|
D|---------------------|
A|--5---------5--------|x2
E|-5-5-5-3-5-5-5-5-3-5-|

G|---------------------------------|
D|---------------------------------|
A|-7-7-7-7-7-7-7-7-7-7-7-7-7-7-7-0-|x32 (I think I counted this right)
E|---------------------------------|

Now this
G|---------------------------------------------------------------|
D|---------------------------------------------------------------|
A|-7-7-7-7-7-7-7-7-7-7-7-7-7-7-7-0-5-5-5-5-5-5-5-5-5-5-5-5-5-5-5-|
E|---------------------------------------------------------------|

G|-----------------------------------------|
D|-----------------------------------------|
A|--5---------5---------5---------5--------|
E|-5-5-5-3-5-5-5-5-3-5-5-5-5-3-5-5-5-5-3-5-|

G|---------------------------------------------|
D|---------------------------------------------|
A|--5---------5---------5---------5--------5-0-|
E|-5-5-5-3-5-5-5-5-3-5-5-5-5-3-5-5-5-5-3-5-----|

            
            
Suggest correction
Creating personal tab
Creating personal tab
You can edit any tab online and save it as your Personal.

You can edit, replace or remove any tab part or add personal notes – all changes will be seen only by you.

Personal tabs can be accessed anytime from any device, even offline.
Learn more »
Give kudos to tab author, rate the tab!
1 2 3 4 5
comments
print report bad tab
guest
You may want to rate the tab now too:
select rating
Wanna post a correction for this tab? Suggest correction