Oops, an error
Loading. Please wait.

Stop When The Red Lights Flash Tab

version 1
version 1

Whole song

Interactive

11,550 views 1 this week
no commentswrite comment
1 2 3 4 5
accurate
x 6
add to favorites
launch autoscroll
font size
0
reset
how to read this tab
guitar tuner
Tab Pro tools
  • play this tab
  • loop segment
  • change instrument
  • show fretboard
  • metronome
×
Best way to learn
"Stop When The Red Lights Flash"
Autoscroll
slow
fast
+/-
esc
set tempo
stop
Contributor
Difficulty
intermediate
Hey, this is my first tab, but i think it's accurate. 
If you have any idea how improve this tabs ( especially solo )write me to leischnerjakub@seznam.cz
Made for studio version.
Not sure about lyrics.
I am not sure about solo.But for me it sounds good.  
Date:18.10.2012
Update:8.10.2012 We have studio version so update this tabs.
Thanks and good luck 


b-bend
p-pull off
v-vibrate

Green day - Stop when the red light flash
Dos
2012



Intro

e|------------------------|
B|------------------------|
G|------7-----------------|
D|--7-7-7--7-5-7----------|      12X
A|--7-7-5--7-5-7----------| 
E|--5-5----5-3-5----------|


Verse 1:

   Uncomfortable silence
e|-------------------------|
B|-------------------------|
G|--7-7-777777777777-------|
D|--7-7-777777777777--77---|
A|--5-5-555555555555--77---| 
E|--------------------55---|

 I'll kill it if you want me to
e|-------------------------------------------------|
B|-------------------------------------------------|
G|--7-7-7777777777777777------7------------7-------|
D|--7-7-7777777777777777--7-7-7-7-5-7--7-7-7-7-5-7-|     
A|--5-5-5555555555555555--7-7-5-7-5-7--7-7-5-7-5-7-|
E|------------------------5-5---5-3-5--5-5---5-3-5-|


I like the ultra-violence
e|-------------------------|
B|-------------------------|
G|--7-7-777777777777-------|
D|--7-7-777777777777--77---|
A|--5-5-555555555555--77---| 
E|--------------------55---|

I'll kill it if you want me to
e|-------------------------------------------------|
B|-------------------------------------------------|
G|--7-7-7777777777777777------7------------7-------|
D|--7-7-7777777777777777--7-7-7-7-5-7--7-7-7-7-5-7-|     
A|--5-5-5555555555555555--7-7-5-7-5-7--7-7-5-7-5-7-|
E|------------------------5-5---5-3-5--5-5---5-3-5-|



Out of sight, out of mind
e|-----------------------|
B|-----------------------|
G|-99999999999999999999--|
D|-99999999999999999999--|
A|-77777777777777777777--| 
E|-----------------------|


I'm not the hurting kind
e|-----------------------|
B|-----------------------|
G|-77777777777777777777--|
D|-77777777777777777777--|
A|-55555555555555555555--| 
E|-----------------------|



Chorus:

I'll make you surrender
e|------------------------|
B|------------------------|
G|--------7---------------|     4X
D|---7-7--7---7-5-7-------|   
A|---7-7--5---7-5-7-------| 
E|---5-5------5-3-5-------|


Verse 2:

 Stop when the red lights flash
e|---------------------------------|
B|---------------------------------|
G|--7-7-77777777777777777777-------|
D|--7-7-77777777777777777777--77---|
A|--5-5-55555555555555555555--77---| 
E|----------------------------55---|

I'll trade your blood for dirty cash
e|-----------------------------------------------------|
B|-----------------------------------------------------|
G|--7-7-77777777777777777777------7------------7-------|
D|--7-7-77777777777777777777--7-7-7-7-5-7--7-7-7-7-5-7-|     
A|--5-5-55555555555555555555--7-7-5-7-5-7--7-7-5-7-5-7-|
E|----------------------------5-5---5-3-5--5-5---5-3-5-|


  Life in the catacombs
e|-------------------------|
B|-------------------------|
G|--7-7-777777777777-------|
D|--7-7-777777777777--77---|
A|--5-5-555555555555--77---| 
E|--------------------55---|

 That make me feel like I'm alone
e|----------------------------------------------------|
B|----------------------------------------------------|
G|--7-7-7777777777777777777------7------------7-------|
D|--7-7-7777777777777777777--7-7-7-7-5-7--7-7-7-7-5-7-|     
A|--5-5-5555555555555555555--7-7-5-7-5-7--7-7-5-7-5-7-|
E|---------------------------5-5---5-3-5--5-5---5-3-5-|



Out of sight, out of mind
e|--------------------------|
B|--------------------------|
G|-99999999999999999999999--|
D|-99999999999999999999999--|
A|-77777777777777777777777--| 
E|--------------------------|


   I'm not the hurting kind
e|--------------------------|
B|--------------------------|
G|-77777777777777777777777--|
D|-77777777777777777777777--|
A|-55555555555555555555555--| 
E|--------------------------|


REF:

I'll make you surrender
e|------------------------|
B|------------------------|
G|--------7---------------|     4X
D|---7-7--7---7-5-7-------|   
A|---7-7--5---7-5-7-------| 
E|---5-5------5-3-5-------|


Solo

Gtr. 1
     
e|---------------------------------|
B|---------------------------------|
G|--7-7-77777777777777777777-------|
D|--7-7-77777777777777777777--77---| then
A|--5-5-55555555555555555555--77---|
E|----------------------------55---|

e|----------------------------------------------------|
B|----------------------------------------------------|
G|--7-7-7777777777777777777------7------------7-------|
D|--7-7-7777777777777777777--7-7-7-7-5-7--7-7-7-7-5-7-| 2X    
A|--5-5-5555555555555555555--7-7-5-7-5-7--7-7-5-7-5-7-|
E|---------------------------5-5---5-3-5--5-5---5-3-5-|

Gtr. 2

     
e|---------------------------------|
B|---9----9----9--9----10--11------|
G|---11b--11b--11b11b--12b-13b-----|  (last two bend on 11th bend fast)
D|---------------------------------| 
A|---------------------------------|
E|---------------------------------|

e|--------------------------------------13p11---11-13v|
B|---9----9----9--9----10--11--12-------------13------|
G|---11b--11b--11b11b--12b-13b-14b--------------------|  (last bend hold)  
D|----------------------------------------------------|               
A|----------------------------------------------------|
E|----------------------------------------------------|


e|---------------------------------|
B|---9----9----9--9----10--11------|
G|---11b--11b--11b11b--12b-13b-----|  (last two bend on 11th bend fast)
D|---------------------------------| 
A|---------------------------------|
E|---------------------------------|

e|----------------------------------------------------|
B|-9----9----9--9---10--11--12-----12--12-12--12--10--|
G|-11b--11b--11b11b-12b-13b-14b----14b-14b14b-14b-12b-| 
D|----------------------------------------------------|               
A|----------------------------------------------------|
E|----------------------------------------------------|


Bridge
 
P.M.***************
   e|------------------|
   B|------------------|
   G|-99999999999------| 
   D|-99999999999------|  X2
   A|-77777777777------| 
   E|------------------|

 Out of sight, out of mind
P.M.******************
e|-----------------------|
B|-----------------------|
G|-99999999999999999999--|
D|-99999999999999999999--|
A|-77777777777777777777--| 
E|-----------------------|


Just give in one more time
P.M.*******************
e|-----------------------|
B|-----------------------|
G|-77777777777777777777--|
D|-77777777777777777777--|
A|-55555555555555555555--| 
E|-----------------------|



REF:

I'll make you surrender
e|-------------------------|
B|-------------------------|
G|---------7---------------|     8X
D|----7-7--7---7-5-7-------|   
A|----7-7--5---7-5-7-------| 
E|----5-5------5-3-5-------|


End on 

e|------|
B|------|
G|---7--|    
D|-7-7-7|   
A|-7-5-7| 
E|-5---5|
comments
print report bad tab
I want to post or [tab]
guest
You may want to rate the tab now too:
select rating
Please do not post tabs as comments. Select "correction" instead!