Oops, an error
Loading. Please wait.
We have an official Stray Heart tab made by UG professional guitarists. Check out the tab »
×
38,757 views 72 this week
4 commentsread comments
1 2 3 4 5
x 12
add to favorites
×
Save as Personal and add changes to this tab that will be seen only by you. Learn more ›
×
You can save this tab as Personal to edit and correct it or add notes. All changes will be seen only by you. Learn more »
launch autoscroll
font size
0
reset
how to read this tab
guitar tuner
edit
Autoscroll
slow
fast
+/-
esc
set tempo
stop
Author
Difficulty
intermediate
Artist: Green Day
Album: ¡DOS!
Song: Stray Heart
Instrument: Guitar
Submitter: GuitarPunk94

Feel free to rate + comment! Join the GreenDayCommunity(GDC) :-)

Standard Tuning


Key:


[Verse 1/Pre-Chorus]

e|-7---7---4-4-4-4-4-4-4-4-0-0-2-2-7-7-7-7---4-4-4-4-|
B|-9---9---4-4-4-4-5-5-5-5-2-2-4-4-9-9-9-9---4-4-4-4-|
G|-9---9---4-4-4-4-6-6-6-6-2-2-4-4-9-9-9-9---4-4-4-4-|
D|-9---9---6-6-6-6-6-6-6-6-2-2-4-4-9-9-9-9---6-6-6-6-|
A|-7---7---6-6-6-6-4-4-4-4-0-0-2-2-7-7-7-7---6-6-6-6-|
E|---------4-4-4-4---------------------------4-4-4-4-|

 [Chorus]
                                     |2x***************|
e|4-4-4-4-0-0-0-0-0-------3-3-3-3-3-3-5-5-7-7-7-7-4-4-4-4-0-0-0-0-0-0-0-0-0-|
B|5-5-5-5-2-2-2-2-1-------5-5-5-5-5-5-7-7-9-9-9-9-4-4-4-4-2-2-2-2-1-1-1-1-1-|
G|6-6-6-6-2-2-2-2-2-------5-5-5-5-5-5-7-7-9-9-9-9-4-4-4-4-2-2-2-2-2-2-2-2-2-|
D|6-6-6-6-2-2-2-2-2-------5-5-5-5-5-5-7-7-9-9-9-9-6-6-6-6-2-2-2-2-2-2-2-2-2-|
A|4-4-4-4-0-0-0-0-0-------3-3-3-3-3-3-5-5-7-7-7-7-6-6-6-6-0-0-0-0-0-0-0-0-0-|
E|------------------------------------------------4-4-4-4-------------------|


[Verse 2/Pre-Chorus]

e|-7---7---4-4-4-4-4-4-4-4-0-0-2-2-7-7-7-7---4-4-4-4-|
B|-9---9---4-4-4-4-5-5-5-5-2-2-4-4-9-9-9-9---4-4-4-4-|
G|-9---9---4-4-4-4-6-6-6-6-2-2-4-4-9-9-9-9---4-4-4-4-|
D|-9---9---6-6-6-6-6-6-6-6-2-2-4-4-9-9-9-9---6-6-6-6-|
A|-7---7---6-6-6-6-4-4-4-4-0-0-2-2-7-7-7-7---6-6-6-6-|
E|---------4-4-4-4---------------------------4-4-4-4-|


[Chorus]

                                     |2x***************|
e|4-4-4-4-0-0-0-0-0-------3-3-3-3-3-3-5-5-7-7-7-7-4-4-4-4-0-0-0-0-0-0-0-0-0-0-0-0-|
B|5-5-5-5-2-2-2-2-1-------5-5-5-5-5-5-7-7-9-9-9-9-4-4-4-4-2-2-2-2-1-1-1-1-1-1-1-1-|
G|6-6-6-6-2-2-2-2-2-------5-5-5-5-5-5-7-7-9-9-9-9-4-4-4-4-2-2-2-2-2-2-2-2-2-2-2-2-|
D|6-6-6-6-2-2-2-2-2-------5-5-5-5-5-5-7-7-9-9-9-9-6-6-6-6-2-2-2-2-2-2-2-2-2-2-2-2-|
A|4-4-4-4-0-0-0-0-0-------3-3-3-3-3-3-5-5-7-7-7-7-6-6-6-6-0-0-0-0-0-0-0-0-0-0-0-0-|
E|------------------------------------------------4-4-4-4-------------------------|


[Solo]

e|-/7~7~7~7~\----------/7~7~7~7~/11~11~/13b14~13b14~\-|
B|-----------/7~7~7~7~\-------------------------------|
G|----------------------------------------------------|
D|----------------------------------------------------|
A|----------------------------------------------------|
E|----------------------------------------------------|

e|4-4-4--4-4-4-4-4-4-4-4-4-4--4-4---4-4-4-4-4-4-4-4-4-------------------------------|
B|5-5-5--5-5-5-5-5-5-5-4-4-4--4-4h5-----5-5-5-5-5-5-5-5-5-4-4-2-0-/-5-5-4-4-2-2-0-0-|
G|4-4-4--4-4-4-4-4-4-4-4-4-4--4-4---4-4-4-4-4-4-4-4-4-------------------------------|
D|----------------------------------------------------------------------------------|
A|----------------------------------------------------------------------------------|
E|----------------------------------------------------------------------------------|

e|------------------------4-4-4-4-4-4-4h7-4-4-4--4-4-4--4-4---4-4-4-4-4-4-4-4-4-|
B|-2-2-2-2-0-0-0-0-0-0-0--5-5-5-5-5-5-5-5-5-5-5--4-4-4--4-4h5-----5-5-5-5-5-5-5-|
G|------------------------4-4-4-4-4-4-4-4-4-4-4--4-4-4--4-4---4-4-4-4-4-4-4-4-4-|
D|------------------------------------------------------------------------------|
A|------------------------------------------------------------------------------|
E|------------------------------------------------------------------------------|

e|5-5-5--5-4-4-4-4-4-4-4-----------------------------|
B|5-5-5--5-5-5-5-5-5-5-5--5--5--5-/7--7-7-7--7-7-7-\-|
G|6-6-6--6-4-4-4-4-4-4-4--7b-7b-7b/9b-9b9b9b-9b9b9b\-|
D|---------------------------------------------------|
A|---------------------------------------------------|
E|---------------------------------------------------|


[Pre-Chorus]

e|-4-4-4-4-4-4-4-4-0-0-0-2-2-2-2-7-7-7-7--4-4-4-4-4-4-4-4-0-0-0-0-0----------|
B|-4-4-4-4-5-5-5-5-2-2-2-4-4-4-4-9-9-9-9--4-4-4-4-5-5-5-5-2-2-2-2-1----------|
G|-4-4-4-4-6-6-6-6-2-2-2-4-4-4-4-9-9-9-9--4-4-4-4-6-6-6-6-2-2-2-2-2----------|
D|-6-6-6-6-6-6-6-6-2-2-2-4-4-4-4-9-9-9-9--6-6-6-6-6-6-6-6-2-2-2-2-2----------|
A|-6-6-6-6-4-4-4-4-0-0-0-2-2-2-2-7-7-7-7--6-6-6-6-4-4-4-4-0-0-0-0-0----------|
E|-4-4-4-4--------------------------------4-4-4-4----------------------------|


[Chorus]

           |3x***************|
e|-3-3-3-3-3-3-5-5-7-7-7-7-4-4-4-4-0-0-0-0-0-0-0-0-----------------------------------------------4\-7--7\|
B|-5-5-5-5-5-5-7-7-9-9-9-9-4-4-4-4-2-2-2-2-1-1-1-1-/-5-5-5-5-4-/-5-5-5-5-4-/-5-5-5-5-4-/-5-5-5-5-5\-9--9\|
G|-5-5-5-5-5-5-7-7-9-9-9-9-4-4-4-4-2-2-2-2-2-2-2-2-----------------------------------------------4\-9--9\|
D|-5-5-5-5-5-5-7-7-9-9-9-9-6-6-6-6-2-2-2-2-2-2-2-2--------------------------------------------------9--9\|
A|-3-3-3-3-3-3-5-5-7-7-7-7-6-6-6-6-0-0-0-0-0-0-0-0--------------------------------------------------7--7\|
E|-------------------------4-4-4-4-----------------------------------------------------------------------|



************************************

| h  Hammer-on
| b  Bend
| /  Slide up
| \  Slide down
| ~  Vibrato

************************************

            
            
Suggest correction
Creating personal tab
Creating personal tab
You can edit any tab online and save it as your Personal.

You can edit, replace or remove any tab part or add personal notes – all changes will be seen only by you.

Personal tabs can be accessed anytime from any device, even offline.
Learn more »
comments
print report bad tab
4 comments total. Showing first comments.
0 reply
SimounZon 129 Apr 20, 2013 04:34 AM

Thanks Man this tab is perfect!!

0 reply
Rachel94 152 Jun 15, 2013 02:38 PM

Great tab dude!

0 reply
Mazr3y 199 Jun 16, 2013 10:04 AM

Awesome solo, 5 stars :D

guest
You may want to rate the tab now too:
select rating
Wanna post a correction for this tab? Suggest correction