Oops, an error
Loading. Please wait.
We have an official Stray Heart tab made by UG professional guitarists. Check out the tab »
×
29,315 views 75 this week
3 commentsread comments
1 2 3 4 5
x 26
add to favorites
×
Save as Personal and add changes to this tab that will be seen only by you. Learn more ›
×
You can save this tab as Personal to edit and correct it or add notes. All changes will be seen only by you. Learn more »
launch autoscroll
font size
0
reset
guitar tuner
edit
Autoscroll
slow
fast
+/-
esc
set tempo
stop
Author
Difficulty
Just a quick glance at the song, I figured I'd take a shot at it so, the rhythms 
are probably off a bit so just listen to the song, and Mike Dirnt adds little 
pickup notes and such along the way so I put the chords in if you wanted to spice 
up the song. Enjoy!

   E
G|--------------|   x2
D|--------------|   (Intro)
A|-777-77-----7-|
E|-------0h7h9--|

   E          Ab   Dbm     A    E       A    B
G|---------------------------------------------------|
D|---------------------------------------------------|    (Verse)
A|-777-777777------44-4444------77-7777--------------|
E|------------444-4--------555-5--------555-577-7777-|

   E          Ab   Dbm     A    E       A    B
G|---------------------------------------------------|
D|---------------------------------------------------|
A|-777-777777------44-4444------77-7777--------------|
E|------------444-4--------555-5--------555-577-7777-|


   Abm        Dbm       A     B       E
G|-----------------------------------------------|
D|-----------------------------------------------|     (Pre-Chorus)
A|------------444-444444--------------777-777777-|
E|-444-444444------------555-577-7777------------|

   Abm        Dbm        A    B      E     C      D
G|------------------------------------------------------|
D|------------------------------------------------------|
A|------------444-444444-------------7\----3(x12)-5(x4)-|
E|-444-444444------------555-577-7777-------------------|



   E          Abm        A          Am
G|---------------------------------------------|
D|----------------------------------777-777777-|     (Chorus)
A|---------------------------------------------|
E|-000-000000-444-444444-555-555555------------|

   E          Abm        A          Am
G|---------------------------------------------|
D|----------------------------------777-77-----|
A|---------------------------------------------|
E|-000-000000-444-444444-555-555555------------|


Goes Back To Intro, then Verse, then Pre-Chorus, and Chorus again...reposted for your convenience.

 
   E
G|--------------|   x2
D|--------------|   (Intro)
A|-777-77-----7-|
E|-------0h7h9--|

   E          Ab   Dbm     A    E       A    B
G|---------------------------------------------------|
D|---------------------------------------------------|    (Verse)
A|-777-777777------44-4444------77-7777--------------|
E|------------444-4--------555-5--------555-577-7777-|

   E          Ab   Dbm     A    E       A    B
G|---------------------------------------------------|
D|---------------------------------------------------|
A|-777-777777------44-4444------77-7777--------------|
E|------------444-4--------555-5--------555-577-7777-|


   Abm        Dbm       A     B       E
G|-----------------------------------------------|
D|-----------------------------------------------|     (Pre-Chorus)
A|------------444-444444--------------777-777777-|
E|-444-444444------------555-577-7777------------|

   Abm        Dbm        A    B      E     C      D
G|------------------------------------------------------|
D|------------------------------------------------------|
A|------------444-444444-------------7\----3(x12)-5(x4)-|
E|-444-444444------------555-577-7777-------------------|



   E          Abm        A          Am
G|---------------------------------------------|   x2
D|----------------------------------777-777777-|     (Chorus)
A|---------------------------------------------|
E|-000-000000-444-444444-555-555555------------|


   B       E B        A B      E B
G|----------------------------------------|
D|----------------------------------------|       (Solo)
A|---------07------------------07---------|
E|-7---------7--------057--------77777777-|


   E          Ab   Dbm     A    E       A    B
G|---------------------------------------------------|
D|---------------------------------------------------|
A|-777-777777------44-4444------77-7777--------------|
E|------------444-4--------555-5--------555-577-7777-|

   E          Ab   Dbm     A    E       A    B
G|---------------------------------------------------|
D|---------------------------------------------------|
A|-777-777777------44-4444------77-7777--------------|
E|------------444-4--------555-5--------555-577-7777-|


   Abm        Dbm       A     B       E
G|-----------------------------------------------|
D|-----------------------------------------------|     (Pre-Chorus)
A|------------444-444444--------------777-777777-|
E|-444-444444------------555-577-7777------------|

   Abm        Dbm        A    B      E     C      D
G|------------------------------------------------------|
D|------------------------------------------------------|
A|------------444-444444-------------7\----3(x12)-5(x4)-|
E|-444-444444------------555-577-7777-------------------|



   E          Abm        A          Am
G|---------------------------------------------|   x3
D|----------------------------------777-777777-|     (Chorus)
A|---------------------------------------------|
E|-000-000000-444-444444-555-555555------------|

   E          Abm        A          Am
G|-----------------------------------------------------|   
D|----------------------------------777-77777777777777-| 
A|-----------------------------------------------------|
E|-000-000000-444-444444-555-555555--------------------|

  E
G|---------------------------------------------|  x2
D|---------------------------------------------|     (Outro)
A|-777-77-----7\(slide out on the second time)-|
E|-------0h7h9---------------------------------|



************************************

| h  Hammer-on
| \  Slide down

************************************

            
            
Suggest correction
Creating personal tab
Creating personal tab
You can edit any tab online and save it as your Personal.

You can edit, replace or remove any tab part or add personal notes – all changes will be seen only by you.

Personal tabs can be accessed anytime from any device, even offline.
Learn more »
comments
print report bad tab
3 comments total.
0 reply
jiligier 182 Aug 16, 2013 08:29 PM

Between the C# and the A in the verse, I think Mike sometimes throws in a B. I'm not too sure, but if you play it, I think it sounds better and fits the song well.

0 reply
cesareo 546 Mar 12, 2014 11:15 AM, edited at 03:16 pm

EG|-------------------| x2D|-------------------| (Intro)A|-777-77----5h7-5-7-|E|-------5-7---------|

0 reply
cesareo 546 Mar 12, 2014 11:18 AM

E
G|-------------------| x2
D|-------------------| (Intro)
A|-777-77----5h7-5-7-|
E|-------5-7---------|

guest
You may want to rate the tab now too:
select rating
Wanna post a correction for this tab? Suggest correction