Oops, an error
Loading. Please wait.

Stuart And The Ave Bass Tab

version 1
version 1

Whole song

Interactive

12,069 views 15 this week
no commentswrite comment
1 2 3 4 5
2 more votes to show rating
add to favorites
launch autoscroll
font size
0
reset
guitar tuner
backing track
0:00
0:00
×
Best way to learn
"Stuart And The Ave"
Autoscroll
slow
fast
+/-
esc
set tempo
stop
Stuart and ave bass tab
Intro
g------------------------------------------------
d-0-0-0-4-2-0-2—222222-4-5-------5—7—-5-4--------
a------------------------------5----------7-5-4-- 
e--------------------------3-3-----------------7-
 
g-----------------------------------------
d---------------------------5-------------
a—5-5-4-5-4---------------5---------------
e-----------0-0-0-0-0—3-3-----5-5-5-5-5-5-
 verse
g----------------------------------------------------
d-0-0-0-4-2-0-2—222222-4-5-5-5-5-5-5-5-5-7-7-7-7-7-7-
a----------------------------------------------------
e----------------------------------------------------
g------------------------------------------------------
d-0-0-0-4-2-0-2—222222-4-5-5-5-5-5-5-5-5-7-7-7-7-5-4-0-
a------------------------------------------------------
e------------------------------------------------------
 
chorus
g----------------|---------------------------------------------------------
d----4-2---------|0-0-0-4-2-0-2-2-2-2-2-2-4-5-5-5-5-5-5—0-0-0-0-0----------
a-55-----4-------|-----------------------------------------------0-0-0-0-0-
e----------33333-|---------------------------------------------------------
bridge
g----------------------------------------------------
d-0-0-0-4-2-0-2—222222-4-5-5-5-5-5-5-5-5-7-7-7-7-7-7-
a----------------------------------------------------
e----------------------------------------------------
 
g--------------------------------------------------------
d-0-0-0-4-2-0-2—222222-4-5-5-5-5-5-5-5-5-7-5-4-----------
a----------------------------------------------7-5-4-----
e----------------------------------------------------7-5-
 
g----------------------------------------------------
d-0-0-0-4-2-0-2—222222-4-5-5-5-5-5-5-5-5-7-7-7-7-7-7-
a----------------------------------------------------
e----------------------------------------------------
g----------------------------------------------------
d-0-0-0-4-2-0-2—222222-4-5-5-5-5-5-5-5-5-7-7-7-7-7-7-
a----------------------------------------------------
e----------------------------------------------------
outro
 
g-------------------------------
d-0-0-0-0-0-0-0-----------------rpt to end
a----------------0-0-0-0-0-0-0--
e-------------------------------
Kirk
====
Suggest correction
Give kudos to tab author, rate the tab!
1 2 3 4 5
comments
print report bad tab
guest
You may want to rate the tab now too:
select rating
Wanna post a correction for this tab? Suggest correction