Oops, an error
Loading. Please wait.

Take Back Bass

version 1
version 1

Whole song

Interactive

786 views 1 this week
3 commentsread comments
1 2 3 4 5
x 7
add to favorites
launch autoscroll
font size
0
reset
guitar tuner
×
Best way to learn
"Take Back"
Autoscroll
slow
fast
+/-
esc
set tempo
stop
Green Day
Bass tab for  Take Back
Transcribed by Craig Oxley
E-Mail : cogder_o@hotmail.com

Listen for correct timing and placing.

Standard Tuning

G------------------------------I
D------------------------------I
A------------------------------I
E--7-7-7-7--5-5--8-8-8-8--I

G---------------------------I
D---------------------------I
A--6-6-6-6-------7-7-7--I
E-------------6-6----------I
Suggest correction
comments
print report bad tab
3 comments total.
0 reply
Orange_shoeS 10 Oct 08, 2005 07:56 AM

this is alright. not perfect, but good

0 reply
Orange_shoeS 10 Nov 05, 2005 05:19 AM

it sounds a bit off key

0 reply
thebassplayer92 10 Mar 19, 2008 09:21 PM

in the second chorus, there is a fill durring the second line

G -------9--------------------
D --------9-------------------
A -6666----77-----------------
E -----66---------------------

guest
You may want to rate the tab now too:
select rating
Wanna post a correction for this tab? Suggest correction