Oops, an error
Loading. Please wait.

Take Back Bass Tab

version 2
version 2

Whole song

Interactive

456 views 1 this week
no commentswrite comment
1 2 3 4 5
please rate
add to favorites
launch autoscroll
font size
0
reset
guitar tuner
Tab Pro tools
  • play this tab
  • loop segment
  • change instrument
  • show fretboard
  • metronome
×
Best way to learn
"Take Back"
Autoscroll
slow
fast
+/-
esc
set tempo
stop
Contributor
----------------------------------------------------------------------------
                            Green Day-Take Back
----------------------------------------------------------------------------
Album:Nimrod
Tuning:Standard

Tabbed by:WARNINGnimrod12
Email:WARNINGnimrod182@aim.com



  VERSE

   G|--------------------------------------------------------------|
   D|--------------------------------------------------------------|
   A|---2--2-2--2-2-2-0--0-0-3--3-3--2--2-2--2-2-2-0--0-0-3--3-3---| x4
   E|--------------------------------------------------------------|


  CHORUS

   G|--------------------------------------------------------------|
   D|---1--1-1--1-1-1--------2--2-2--1--1-1--1-1-1--------2--2-2---|
   A|-----------------1--1-1-----------------------1--1-1----------|
   E|--------------------------------------------------------------|


   G|--------------------------------------------------------------|
   D|--------------------------------------------------------------|
   A|---2--2-2--2-2-2-0--0-0-3--3-3--2--2-2--2-2-2-0--0-0-3--3-3---|
   E|--------------------------------------------------------------|


  VERSE 2

   G|--------------------------------------------------------------|
   D|--------------------------------------------------------------|
   A|---2--2-2--2-2-2-0--0-0-3--3-3--2--2-2--2-2-2-0--0-0-3--3-3---| x4
   E|--------------------------------------------------------------|


  CHORUS 2

   G|--------------------------------------------------------------|
   D|---1--1-1--1-1-1--------2--2-2--1--1-1--1-1-1--------2--2-2---|
   A|-----------------1--1-1-----------------------1--1-1----------| x2
   E|--------------------------------------------------------------|


  OUTRO

   G|--------------------------------------------------------------|
   D|--------------------------------------------------------------|
   A|---2--2-2--2-2-2-0--0-0-3--3-3--2--2-2--2-2-2-0--0-0-3--3-3---| x2
   E|--------------------------------------------------------------|


   G|----------------------------------------------------------------|
   D|----------------------------------------------------------------|
   A|---2~~~~~~~~~~~~~~~~~~~~~~~~~~~~~~~-----------------------2-2---|
   E|----------------------------------------------------------------|
comments
We did not receive enough feedback on this tab! Please rate:
print report bad tab
1 2 3 4 5
I want to post or [tab]
guest
You may want to rate the tab now too:
select rating
Please do not post tabs as comments. Select "correction" instead!