Oops, an error
Loading. Please wait.

Tell Me When Its Time To Say I Love You Bass Tab

version 1
version 1

Whole song

Interactive

3,398 views 1 this week
1 commentread comment
1 2 3 4 5
2 more votes to show rating
add to favorites
launch autoscroll
font size
0
reset
guitar tuner
Autoscroll
slow
fast
+/-
esc
set tempo
stop
Help us to improve Ultimate-Guitar.com Take our survey!
×
Author
Difficulty
Song: Tell Me When Its Time To Say I Love You
Artist: Billie Joe Armstrong
Album: American Idiot Broadway.

ok, i don't actually know if bass in included in this song but if it was, and you want 
play along to it with your bass guitar(or similar), here is the tabs.
this song is probably a good song for beginner's, or infact you are more skilled and you 
to just play along.
Another thing is, you need to know the tempo of the song, and when the notes/chords 
to hear the tempo, so dont rely on the tab for the tempo.

Bass comes in at " But then i need your voice... "
G|----------------------------------------|
D|----------------------------------------|
A|----------5------5------------3-----3---|
E|-3-----3------------0------0------------|

" So Tell me wheeen... "
G|-----------------------------------|
D|----------------------------5----5-|
A|-----------5--5-5------------------|
E|-3--3-3-----------3--3-3-----------|

" All i want is you to... "
G|--------------------------------------------------------------------|
D|--------------------------------------------------------------------|
A|3---3---------5----5--------0--2--3----3----------5---5-5----3--2--0|
E|-------3----3--------3---3----------------3----3--------------------|

Guitar Solo (x2)
G|----------------------------------------------|
D|----------------------------------------------|
A|--------5----5--------3----3---------5----5---|
E|3----3---------0----0--------3----3-----------|

" All i want is you to..."
G|-------------------------------------------------------------------------------------------|
D|-------------------------------------------------------------------------------------------|
A|3-----3--------5---5--------0--2--3--3---------5---5-5--3--2--0----------------------------|
E|--------3----3-------3---3-------------3----3----------------------------------------------|

" I feel lonely for... "
G|-----------------------------------------------------------------|
D|-----------------------------------------------------------------|
A|--------5----5-----------3----3----------5----5-5-----------5----|
E|3----3---------0------0----------3----3------------3----3-3------|

" Yet they'll never have... "
G|-------------------------------------------------------|
D|-------------------------------------------------------|
A|--------5----5---------3----3---------5----5-----------|
E|3----3---------0----0---------3----3---------3----3----|

Last Line,
G|-------------------------------------|
D|-------------------------------------|
A|--------5----5--3---3--2--0----------|
E|3----3------------------------3~-----|

(~) = let the note ring.

If you have any comments, please contact me on connormcfall96@hotmail.co.uk, Thankyou.
Suggest correction
Give kudos to tab author, rate the tab!
1 2 3 4 5
comments
print report bad tab
1 comment total.
0 reply
GreenDaysBasser 52 Sep 16, 2010 12:15 PM

i should of put in lyrics :/, ahwell :)

guest
You may want to rate the tab now too:
select rating
Wanna post a correction for this tab? Suggest correction