Oops, an error
Loading. Please wait.

Tell Me When Its Time To Say I Love You Tab

version 2
version 2

Whole song

Interactive

7,932 views 1 this week
no commentswrite comment
1 2 3 4 5
x 3
add to favorites
launch autoscroll
font size
0
reset
how to read this tab
guitar tuner
Autoscroll
slow
fast
+/-
esc
set tempo
stop
Help us to improve Ultimate-Guitar.com Take our survey!
×
Author
Difficulty
intermediate
-------------------------------------------------------------------------------------
                                Green Day - When It's Time (Solo)
-------------------------------------------------------------------------------------

Tabbed by: tomatpasser

Tuning: Standard

e|-3-----------2------------2---------2------------------------------0--------0------| x2
B|----3-----3-----3-----5-----5----5-----5--3---5--------3--------7---------7-----7--|
G|-------0-----------0-----------------------------5--------4-----------7-------7----|
D|----------------------------------------------------5--------5---------------------|
A|-----------------------------------------------------------------------------------|
E|-----------------------------------------------------------------------------------|

That's how i play it
Suggest correction
Give kudos to tab author, rate the tab!
1 2 3 4 5
comments
print report bad tab
guest
You may want to rate the tab now too:
select rating
Wanna post a correction for this tab? Suggest correction