Oops, an error
Loading. Please wait.

Tell Me When Its Time To Say I Love You Bass Tab

version 2
version 2

Whole song

Interactive

436 views 1 this week
no commentswrite comment
1 2 3 4 5
please rate
add to favorites
launch autoscroll
font size
0
reset
guitar tuner
Tab Pro tools
  • play this tab
  • loop segment
  • change instrument
  • show fretboard
  • metronome
×
Best way to learn
"Tell Me When Its Time To Say I Love You"
Autoscroll
slow
fast
+/-
esc
set tempo
stop
Contributor
Difficulty
novice
I'm not sure that the solo is 100% correct.
I think that the verse and chorus are correct.
Enjoy :)

Verse
G|---------------------|
D|---------------------|
A|-------------333-320-|
E|-333-222-000---------|

Pre Chorus

G|-------------------|
D|-------------------|
A|------555----------|
E|-333------333------|

Chorus
G|--------------------------------------------------|
D|--------------------------------------------------|
A|-023--33------555-----023-33-----555--/10--320----|
E|---------333------333--------333------------------|

Solo
G|--------------------------------------------------------|
D|----------------------------------------12h10h9---------|
A|-----------7~-7h9~-7h9~--023-33-22--99----------12h10h9-|
E|--333-222-----------------------------------------------|

G|---------------------------------------|
D|---------------------------------------|
A|-----------7~-7h9~-7h9~--023-33-22--99-|
E|--333-222------------------------------|

Play Chorus
Play Verse 2x
Play Pre Chorus

Outro
G|-------------------------|
D|-------------------------|
A|-----555----------555----|
E|-333-----333--333----333-|

G|-----------------------------|
D|-----------------------------|
A|-5~-3~-2~--------------------|
E|----------123~---------------|
comments
We did not receive enough feedback on this tab! Please rate:
print report bad tab
1 2 3 4 5
I want to post or [tab]
guest
You may want to rate the tab now too:
select rating
Please do not post tabs as comments. Select "correction" instead!