Oops, an error
Loading. Please wait.

Tell Me When Its Time To Say I Love You Tab

version 2
version 2

Whole song

Interactive

8,997 views 21 this week
no commentswrite comment
1 2 3 4 5
excellent!
x 4
add to favorites
launch autoscroll
font size
0
reset
how to read this tab
guitar tuner
Tab Pro tools
  • play this tab
  • loop segment
  • change instrument
  • show fretboard
  • metronome
×
Best way to learn
"Tell Me When Its Time To Say I Love You"
Autoscroll
slow
fast
+/-
esc
set tempo
stop
Contributor
Difficulty
When its Time - Green Day - American Idiot Musical Album
Tabbed by: KyLeDaYgReEnDaY
Email: kyledaygreenday@hotmail.co.uk

Tuning: Standard

Acoustic
G                       D   
Words get trapped in my mind,

              Em                              C
Sorry I don't take the time to feel the way I do.

          G                          D 
Cause the first day you came into my life,

               G              D
The time ticks around you



G                    D
But then I need your voice

              Em                                    C       
As the key to unlock all the love that's trapped in me


           G         D             G            G 
So tell me when it's time to say I love you.



C             G                     
All I want is you to understand, that

D                                    G          G    B 
when I take your hand, it's 'cause I want to.

C               G                
We are all born in a world of doubt

               D
But there's no doubt, I figured out


C    G/B    G/A
I    love   you.

Guitar Solo (Electric)

E|-3---------------2---------------|------------------------------|
B|-----3-------3-------3-------5---|-5---7---5----5---7---5-------|
G|---------4---------------4-------|--------------------------7---|
D|---------------------------------|------------------------------|
A|---------------------------------|------------------------------|
E|---------------------------------|------------------------------|


E|------------------------------|------------------------------|-3---------------2---------------|
B|-5------------3-----------7---|-7----------------8-----------|-----3-------3-------3-------5---|
G|-----5------------4-----------|-----7--------7-------7-------|---------4---------------4-------|
D|---------5------------5-------|---------7----------------7---|---------------------------------|
A|------------------------------|------------------------------|---------------------------------|
E|------------------------------|------------------------------|---------------------------------|


E|------------------------------|------------------------------|---------------------------|
B|-5---7---5----5---7---5-------|-5------------3-----------7---|-7----------------8--------|
G|--------------------------7---|-----5------------4-----------|-----7--------7-------7----|
D|------------------------------|---------5------------5-------|---------7-----------------|
A|------------------------------|------------------------------|---------------------------|
E|------------------------------|------------------------------|---------------------------|


C             G                     
All I want is you to understand, that

D                                    G           G    G
when I take your hand, it's 'cause I want to.

C               G                
We are all born in a world of doubt

               D
But there's no doubt, I figured out


C    G       A
I    love   you.



G             D
I feel lonely for

               Em                               C 
All the losers that will never take the time to say,

         G                      D      D
What was really on their mind instead
      
               G            G    D
They just hide away
    


G                 D                                            
Yet they'll never have 

                 Em                               C
someone like you to guide them and help along the way.

             G         D             G
Or tell them when it's time to say I love you.


           G         D             C            G     D    G  
So tell me when it's time to say I love you.

************************************

| /   slide up
| \   slide down
| h   hammer-on
| p   pull-off
| ~   vibrato
| +   harmonic
| x   Mute note
| b   Bend
| pb  Pre-bend
| br  Bend release
| pbr Pre-bend release
| brb Bend release bend

************************************
comments
print report bad tab
I want to post or [tab]
guest
You may want to rate the tab now too:
select rating
Please do not post tabs as comments. Select "correction" instead!