Oops, an error
Loading. Please wait.

The Grouch Bass Tab

version 2
version 2

Whole song

Interactive

7,061 views 18 this week
2 commentsread comments
1 2 3 4 5
excellent!
x 5
add to favorites
launch autoscroll
font size
0
reset
guitar tuner
Autoscroll
slow
fast
+/-
esc
set tempo
stop
Help us to improve Ultimate-Guitar.com Take our survey!
×
Author
-----------------------------------------------------------------------------
			     THE GROUCH – Green Day
-----------------------------------------------------------------------------

Tabbed By: Rob Meyer 
e-mail: black_friday_ruled780@yahoo.com

Tuning: Standard


Starts out on guitar, then…
 
Intro
G:------------------------------------|
D:------------------------------------|
A:-------------55----7777h9-----------|
E:-020-5-00-55----55--------5555555h7-|
     
Verse 
|----------------------------------------------------------|
|----------------------------------------------------------|
|---------55-------55---------------55----7777h9-----------|
|-5-00-55----55-00----00020-5-00-55----55--------5555555h7-|
 
Chorus
|--------------------------------|
|--------------------------------|
|---55-------------555-----7754--|
|-2----55-00020-22-----555-----7-|

|-------------------------------------------|
|-------------------------------------------|
|---55-------------555------77777777777754--|
|-2----55-00020-22-----555----------------7-|


Verse x2
Chorus x1
Verse x1
Chorus x1
Intro x1
Verse x1


Outro
|---------------------|   |-------------------------|
|---------------------|x2 |-------------------------|
|----7777h9-----------|   |----7777h9-55555555557---|
|-55--------5555555h7-|   |-55-------------------5~-|

End on E5
Suggest correction
What's this?
You can suggest a correction to this tab. Community and Mods will review your correction and vote to approve or reject it.
comments
print report bad tab
2 comments total.
0 reply
Plateus 11 wrote on April 1 2009, 08:38 pm

hey good job, I looked at the higher rated tab before this, they had the right idea, but it just wasn't quite it, i noticed the 7-5-4 part too, just like you did, and the other things he does, good job!

0 reply
wembly 251 wrote on March 16 2010, 06:27 am

really good tab

guest
You may want to rate the tab now too:
select rating
Please do not post tabs as comments. Select "correction" instead!