Oops, an error
Loading. Please wait.

The Grouch Tab

version 4
version 4

Whole song

Interactive

178 views 3 this week
no commentswrite comment
1 2 3 4 5
2 more votes to show rating
add to favorites
launch autoscroll
font size
0
reset
how to read this tab
guitar tuner
×
Best way to learn
"The Grouch"
Autoscroll
slow
fast
+/-
esc
set tempo
stop
About this tab version
These chords are eaiser to play as they don't require you to slide down the neck as much. Also the solo sounds a bit more convincing with extra notes that some of the other tabs don't have. Was this info helpful? Yes No
Song: The Grouch
Artist: Green Day
Album: Nimrod
Tuning: Standard  


[Intro]

e|-------------------------------------------------------|
B|---------------------3-3-x-------------3-3-x-----------|
G|---2-2-x-------2-2-x-2-2-x-2-2-x-------2-2-x-----------|
D|---2-2-x-2-2-x-2-2-x-0-0-x-2-2-x-2-2-x-0-0-x-2-2-x-----|
A|---0-0-x-2-2-x-0-0-x-------0-0-x-2-2-x-------2-2-x-----|
E|---------0-0-x-------------------0-0-x-------0-0-x-----|


[Verse 1]

e|----------------------------------------------------------|
B|---------------------3-3-x--------3-3-x-------------------|
G|---2-2-x-------2-2-x-2-2-x-2-2-x--2-2-x-------------------|
D|---2-2-x-2-2-x-2-2-x-0-0-x-2-2-x--0-0-x-2-2-2-2-2-2-2-2---|
A|---0-0-x-2-2-x-0-0-x-------0-0-x--------2-2-2-2-2-2-2-2---|
E|---------0-0-x--------------------------0-0-0-0-0-0-0-0---|

e|-------------------------------------------------------|
B|---------------------3-3-x-------------3-3-x-----------|
G|---2-2-x-------2-2-x-2-2-x-2-2-x-------2-2-x-----------|
D|---2-2-x-2-2-x-2-2-x-0-0-x-2-2-x-2-2-x-0-0-x-2-2-x-----|
A|---0-0-x-2-2-x-0-0-x-------0-0-x-2-2-x-------2-2-x-----|
E|---------0-0-x-------------------0-0-x-------0-0-x-----|

e|----------------------------------------------------------|
B|---------------------3-3-x--------3-3-x-------------------|
G|---2-2-x-------2-2-x-2-2-x-2-2-x--2-2-x-------------------|
D|---2-2-x-2-2-x-2-2-x-0-0-x-2-2-x--0-0-x-2-2-2-2-2-2-2-2---|
A|---0-0-x-2-2-x-0-0-x-------0-0-x--------2-2-2-2-2-2-2-2---|
E|---------0-0-x--------------------------0-0-0-0-0-0-0-0---|


[Chorus]

e|--------------------------------------------------------------------|
B|---------3-3-x-------------------------3-3-3-3-x--------------------|
G|---------2-2-x-2-2-x-------------------2-2-2-2-x--2-2-2-2-x--9-9----|
D|---4-4-x-0-0-x-2-2-x-2-2-x--4-4-4-4-x--0-0-0-0-x--2-2-2-2-x--9-9----|
A|---4-4-x-------0-0-x-2-2-x--4-4-4-4-x-------------0-0-0-0-x--7-7----|
E|---2-2-x-------------0-0-x--2-2-2-2-x-------------------------------|

e|---------------------------------------------------------------|
B|---------3-3-x-------------------------3-3-3-3-x---------------|
G|---------2-2-x-2-2-x-------------------2-2-2-2-x--2-2-2-2-x----|
D|---4-4-x-0-0-x-2-2-x-2-2-x--4-4-4-4-x--0-0-0-0-x--2-2-2-2-x----|
A|---4-4-x-------0-0-x-2-2-x--4-4-4-4-x-------------0-0-0-0-x----|
E|---2-2-x-------------0-0-x--2-2-2-2-x--------------------------|

e|---------------------------------------|
B|---------------------------------------|
G|---8-9-9-9-9-9-9-9-8-9-9-9-9-9-9-9-----|
D|---x-x-x-x-x-x-x-x-x-x-x-x-x-x-x-x-----|
A|---6-7-7-7-7-7-7-7-6-7-7-7-7-7-7-7-----|
E|---------------------------------------|


[Verse 2]

(Same as Verse 1 + Intro)

e|-------------------------------------------------------|
B|---------------------3-3-x-------------3-3-x-----------|
G|---2-2-x-------2-2-x-2-2-x-2-2-x-------2-2-x-----------|
D|---2-2-x-2-2-x-2-2-x-0-0-x-2-2-x-2-2-x-0-0-x-2-2-x-----|
A|---0-0-x-2-2-x-0-0-x-------0-0-x-2-2-x-------2-2-x-----|
E|---------0-0-x-------------------0-0-x-------0-0-x-----|

e|----------------------------------------------------------|
B|---------------------3-3-x--------3-3-x-------------------|
G|---2-2-x-------2-2-x-2-2-x-2-2-x--2-2-x-------------------|
D|---2-2-x-2-2-x-2-2-x-0-0-x-2-2-x--0-0-x-2-2-2-2-2-2-2-2---|
A|---0-0-x-2-2-x-0-0-x-------0-0-x--------2-2-2-2-2-2-2-2---|
E|---------0-0-x--------------------------0-0-0-0-0-0-0-0---|

e|-------------------------------------------------------|
B|---------------------3-3-x-------------3-3-x-----------|
G|---2-2-x-------2-2-x-2-2-x-2-2-x-------2-2-x-----------|
D|---2-2-x-2-2-x-2-2-x-0-0-x-2-2-x-2-2-x-0-0-x-2-2-x-----|
A|---0-0-x-2-2-x-0-0-x-------0-0-x-2-2-x-------2-2-x-----|
E|---------0-0-x-------------------0-0-x-------0-0-x-----|

e|----------------------------------------------------------|
B|---------------------3-3-x--------3-3-x-------------------|
G|---2-2-x-------2-2-x-2-2-x-2-2-x--2-2-x-------------------|
D|---2-2-x-2-2-x-2-2-x-0-0-x-2-2-x--0-0-x-2-2-2-2-2-2-2-2---|
A|---0-0-x-2-2-x-0-0-x-------0-0-x--------2-2-2-2-2-2-2-2---|
E|---------0-0-x--------------------------0-0-0-0-0-0-0-0---|


[Chorus 2]

(Same as Chorus 1)

e|--------------------------------------------------------------------|
B|---------3-3-x-------------------------3-3-3-3-x--------------------|
G|---------2-2-x-2-2-x-------------------2-2-2-2-x--2-2-2-2-x--9-9----|
D|---4-4-x-0-0-x-2-2-x-2-2-x--4-4-4-4-x--0-0-0-0-x--2-2-2-2-x--9-9----|
A|---4-4-x-------0-0-x-2-2-x--4-4-4-4-x-------------0-0-0-0-x--7-7----|
E|---2-2-x-------------0-0-x--2-2-2-2-x-------------------------------|

e|---------------------------------------------------------------|
B|---------3-3-x-------------------------3-3-3-3-x---------------|
G|---------2-2-x-2-2-x-------------------2-2-2-2-x--2-2-2-2-x----|
D|---4-4-x-0-0-x-2-2-x-2-2-x--4-4-4-4-x--0-0-0-0-x--2-2-2-2-x----|
A|---4-4-x-------0-0-x-2-2-x--4-4-4-4-x-------------0-0-0-0-x----|
E|---2-2-x-------------0-0-x--2-2-2-2-x--------------------------|

e|---------------------------------------|
B|---------------------------------------|
G|---8-9-9-9-9-9-9-9-8-9-9-9-9-9-9-9-----|
D|---x-x-x-x-x-x-x-x-x-x-x-x-x-x-x-x-----|
A|---6-7-7-7-7-7-7-7-6-7-7-7-7-7-7-7-----|
E|---------------------------------------|


[Solo]

e|---0--0-0-0--0-0-0--0-0-0--0-0-0--0-0-0--0-0-0--0-0-0-0------|
B|---5--5-5-5--5-7-7--5-5-5--5-5-5--5-5-5--5-3-3--5-5-5-0------|
G|-------------------------------------------------------------|
D|-------------------------------------------------------------|
A|-------------------------------------------------------------|
E|-------------------------------------------------------------|

e|---0-0-0-0-0--0-0-0-0-0-0-0--0-0-0--0-0-0-0-0-----------|
B|---0-2-2---0--0-0-0-2-2-3-3--2-2-2--7-5-3-2-----5/x-----|
G|---------2----------------------------------2-----------|
D|--------------------------------------------------------|
A|--------------------------------------------------------|
E|--------------------------------------------------------|

e|---0-0-0-0--0-0-0--0-0-0-0-0--0-0-0-0-0-0-0-0-0-0-0-0-4/x---|
B|---2-2-3-3--3-2-2--2-0-0-0-0--2-2-2-2-3-3-3-3-2-2-2-2-5/x---|
G|------------------------------------------------------------|
D|------------------------------------------------------------|
A|------------------------------------------------------------|
E|------------------------------------------------------------|

e|---0-0-0-0--0-0-0--0-0-0-0-0--0-0-0-0-0-0-0-0-0-0-0-0----|
B|---2-2-3-3--3-2-2--2-0-0-0-0--2-2-2-2-3-3-3-3-2-2-2-2----|
G|---------------------------------------------------------|
D|---------------------------------------------------------|
A|---------------------------------------------------------|
E|---------------------------------------------------------|

e|--------------------------------------------|
B|--------------------------------------------|
G|---8-9-9-9-9-9-9-9-9-11-11-13-13-15-15-17---|
D|---x-x-x-x-x-x-x-x-x-x--x--x--x--x--x--x----|
A|---6-7-7-7-7-7-7-7-7-9--9--11-11-13-13-15---|
E|--------------------------------------------|


[Verse 3]

(Just Like Verse 2)

e|-------------------------------------------------------|
B|---------------------3-3-x-------------3-3-x-----------|
G|---2-2-x-------2-2-x-2-2-x-2-2-x-------2-2-x-----------|
D|---2-2-x-2-2-x-2-2-x-0-0-x-2-2-x-2-2-x-0-0-x-2-2-x-----|
A|---0-0-x-2-2-x-0-0-x-------0-0-x-2-2-x-------2-2-x-----|
E|---------0-0-x-------------------0-0-x-------0-0-x-----|

e|----------------------------------------------------------|
B|---------------------3-3-x--------3-3-x-------------------|
G|---2-2-x-------2-2-x-2-2-x-2-2-x--2-2-x-------------------|
D|---2-2-x-2-2-x-2-2-x-0-0-x-2-2-x--0-0-x-2-2-2-2-2-2-2-2---|
A|---0-0-x-2-2-x-0-0-x-------0-0-x--------2-2-2-2-2-2-2-2---|
E|---------0-0-x--------------------------0-0-0-0-0-0-0-0---|

e|-------------------------------------------------------|
B|---------------------3-3-x-------------3-3-x-----------|
G|---2-2-x-------2-2-x-2-2-x-2-2-x-------2-2-x-----------|
D|---2-2-x-2-2-x-2-2-x-0-0-x-2-2-x-2-2-x-0-0-x-2-2-x-----|
A|---0-0-x-2-2-x-0-0-x-------0-0-x-2-2-x-------2-2-x-----|
E|---------0-0-x-------------------0-0-x-------0-0-x-----|

e|----------------------------------------------------------|
B|---------------------3-3-x--------3-3-x-------------------|
G|---2-2-x-------2-2-x-2-2-x-2-2-x--2-2-x-------------------|
D|---2-2-x-2-2-x-2-2-x-0-0-x-2-2-x--0-0-x-2-2-2-2-2-2-2-2---|
A|---0-0-x-2-2-x-0-0-x-------0-0-x--------2-2-2-2-2-2-2-2---|
E|---------0-0-x--------------------------0-0-0-0-0-0-0-0---|


[Outro]

e|-----------------------------------|
B|-----------3-3-x-------------------|
G|----2-2-x--2-2-x-------------------|
D|----2-2-x--0-0-x-2-2-2-2-2-2-2-2---| 
A|----0-0-x--------2-2-2-2-2-2-2-2---|
E|-----------------0-0-0-0-0-0-0-0---|

e|-------------------------------------------------|
B|-----------3-3-x---------------------------------|
G|----2-2-x--2-2-x-2-2-2-2-2-2-2-2-2-2-2-2---2/x---|
D|----2-2-x--0-0-x-2-2-2-2-2-2-2-2-2-2-2-2---2/x---| 
A|----0-0-x--------0-0-0-0-0-0-0-0-0-0-0-0---0/x---|
E|-------------------------------------------------|


************************
|x  Dead note
|/x  Slide to Nowhere
************************
Suggest correction
Give kudos to tab author, rate the tab!
1 2 3 4 5
comments
print report bad tab
guest
You may want to rate the tab now too:
select rating
Wanna post a correction for this tab? Suggest correction