Oops, an error
Loading. Please wait.

The Judges Daughter Tab

version 1
version 1

Whole song

Interactive

7,070 views 12 this week
2 commentsread comments
1 2 3 4 5
x 3
add to favorites
launch autoscroll
font size
0
reset
how to read this tab
guitar tuner
Autoscroll
slow
fast
+/-
esc
set tempo
stop
Help us to improve Ultimate-Guitar.com Take our survey!
×
THE JUDGES DAUGHTER - Green Day
By: Dom Nole

the ^ below the 7 means bend that note
~ means vibrate the string
p.m. = palm mute
 = slide up

  verse
e|---------------------------------------------------------------------------|
B|---------------------------------------------------------------------------|
G|--------------------55555--------------------------------------------------|
D|---55555---333333---55555---555555-----------------------------------------|
A|---55555---333333---33333---555555-----------------------------------------|
E|---33333---111111-----------333333-----------------------------------------|

  chorus
e|---------------------------------------------------------------------------|
B|---------------------------------------------------------------------------|
G|---555555---777777---------------------------------------------------------|
D|---555555---777777---5555--3--555555---------------------------------------|
A|---333333---555555---5555--3--555555---------------------------------------|
E|---------------------3333--1--333333---------------------------------------|

e|---------------------------------------------------------------------------|
B|---------------------------------------------------------------------------|
G|---555555---777777---555555---777777---------------------------------------|
D|---555555---777777---555555---777777---5555--3--555555---555--3--555555----|
A|---333333---555555---333333---555555---5555--3--555555---555--3--555555----|
E|---------------------------------------3333--1--333333---333--1--333333----|
  "you're the one i wish i had...."

  interlude
e|---------------------------------------------------------------------------|
B|---------------------------------------------------------------------------|
G|---------------------------------------------------------------------------|
D|---5555--3--55---5555--3--55---5555--3--55---5555--3--5555-----------------|
A|---5555--3--55---5555--3--55---5555--3--55---5555--3--5555-----------------|
E|---3333--1--33---3333--1--33---3333--1--33---3333--1--3333-----------------|
  "so can we find a way, so that you can stay......."

  solo
e|---------------------------------------------------------------------------|
B|---888888---------------------------------8---888888-----------------------|
G|---777777---------------------------------7---777777-----------------------|
D|---^^^^^^---8-8-5-6h8-5---0000222233335-------^^^^^^-----------------------|
A|---------------------------------------------------------------------------|
E|---------------------------------------------------------------------------|
                            p.m..........

e|-----------------------------------------------------------------------------|
B|---8-8-8h10r8----------------------------------------------------------------|
G|--------------9-11~--11-9--5h6r5---4~--3-333333-2----------------------------|
D|---------------------------------7----------------4-3-2-----2----|
A|--------------------------------------------------------2-0------------------|
E|-----------------------------------------------------------------------------|

e|------10-10----10-10----10-10--8------------------------------------------------|
B|---12-------12-------12----------11~--11-11--11h13r11--11h13--15-15-13-15-20----|
G|---------------------------------------------------------------^--^-------------|
D|--------------------------------------------------------------------------------|
A|--------------------------------------------------------------------------------|
E|--------------------------------------------------------------------------------|

e|---------------------------------------------------------------------------|
B|---------------888-----88--------------------------------------------------|
G|---3-3--3h4r3--777--3/-77---3-3h4r3-3~--0-0-0-0-0-0------------------------|
D|----------------------------------------5-5-5-2-3-5------------------------|
A|---------------------------------------------------------------------------|
E|---------------------------------------------------------------------------|
    p.m. 

I don't think the solo is anywhere near right.  I did it in the hopes that it would
help someone else out who has a better ear. send any hate mail to wickdclown3d@aol.com
and you will receive today's Words of Wisdom - "Eat a Dick."  Peace
===========


Green Day - The Judge's Daughter
Tabbed By: Daniel Taylor
EMail: danielt88@hotmail.com


I'll just put the solo on because that's what's wrong on the other.

e---------3---------3---------------------------------------
B-------3---------3-----------------------------------------
G--5^^-------5^^-------5--3--3/2-----2h3--2-----------------
D---------------------------------3---------3--0------------
A----------------------------------------------0--3-5-5-----
E-----------------------------------------------------------
Pm                                                ------

e--------------------------------3-3------3-3---3--6p3------
B--------------------------------3-3------3-3-3--------6-3--
G--------------3-0---3-5-3-5^^--------5^^-------------------
D--3--5-5-5-5------5----------------------------------------
A-----------------------------------------------------------
E-----------------------------------------------------------
   -----------------------

e-----------------------------------------------------------
B--6^^--6-6-3-----------------------------------------------
G--------------5^^--5p3----3-5--5p3--3--------------------x-
D---------------------------------------5-4-3-----------5---
A----------------------------------------------5-4-3/1------
E-----------------------------------------------------------

e-----------------------------------------------------------
B--------15-------15-------15--------15--15-----------------
G--17p15----17^^-----17^^------17^^----------17^^--15----15-
D-----------------------------------------------------------
A-----------------------------------------------------------
E-----------------------------------------------------------

e------------------------------15-------------------15--16^^
B--------------------------15------18^^--18^^--18^----------
G--15--17p15------15--17^-----------------------------------
D-------------17--------------------------------------------
A-----------------------------------------------------------
E-----------------------------------------------------------

e------------------------3----------3-----------------------
B---------------------3----------3--------------------------
G--3--5p3-----3--5^^--------5^^--------5^^--5p3-----3--3--3-
D----------5-------------------------------------5----------
A-----------------------------------------------------------
E-----------------------------------------------------------

e-------------------------------------
B-------------------------------------
G-----0--0-----0---0--0--0--0-0--0----
D--5--------3--2---5-----5--5----5----
A-------------------------------------
E-------------------------------------

That is 100% right without a shadow of doubt.

^^ full bend
^ 1/4 bend
Suggest correction
Give kudos to tab author, rate the tab!
1 2 3 4 5
comments
print report bad tab
2 comments total.
0 reply
Thedboy 1,580 Sep 09, 2007 05:57 AM

everything is perfect apart from the solo.

0 reply
AnxiousShrink 10 Dec 14, 2013 09:37 AM

I think you tabbed this in D-Standard tuning, rather than D# tuning. Other than that, great tab!

guest
You may want to rate the tab now too:
select rating
Wanna post a correction for this tab? Suggest correction