Oops, an error
Loading. Please wait.

The One I Want Tab

version 1
version 1

Solo

Whole song

Interactive

1,728 views 3 this week
1 commentread comment
1 2 3 4 5
excellent!
x 6
add to favorites
launch autoscroll
font size
0
reset
how to read this tab
guitar tuner
Autoscroll
slow
fast
+/-
esc
set tempo
stop
Help us to improve Ultimate-Guitar.com Take our survey!
×
Author
Tabbed by:Sam Champness
Email:

Tuning: Half step down


e|------0-----0-----------0----0--------0------------------------|
B|-4-4-----4-----4-\-2-2-----2----/--4-----4---------------------|
G|---------------------------------------------------------------|
D|---------------------------------------------------------------|
A|---------------------------------------------------------------|
E|---------------------------------------------------------------|

e|---0------0------|---0-----0-----|----------0-------0-------0---0---------|
B|------0-----0----|-----0-----0---|-4--4-4-4---4-0-2---2-2-4---2-----------|
G|-2------2-----2--|-1-----1-----1-|----------------------------------------|
D|-----------------|---------------|----------------------------------------|
A|-----------------|---------------|----------------------------------------|
E|-----------------|---------------|----------------------------------------|

e|---0-----0-----|---0-----0------|---------------------------------------|
B|-----0-----0---|-----0-----0----|-0--0-0-0-0-0--0-0-0-0-0----0-0-0-0-0--|
G|-2-----2-----2-|-1-----1-----1--|-2--4-4-4-4-4--6-6-6-6-6-8--8-8-8-8-8--|
D|---------------|----------------|---------------------------------------|
A|---------------|----------------|---------------------------------------|
E|---------------|----------------|---------------------------------------|

e|--------------------------------------------------------------------------|
B|----0-0-0-0-0-------0--0--0--0--0------0--0-------0--0--0--0--------------|
G|-9--9-9-9-9-9--11--11-11-11-11-11--13--13-13--11--11-11-11-11-------------|
D|--------------------------------------------------------------------------|
A|--------------------------------------------------------------------------|
E|--------------------------------------------------------------------------|

e|--------------------------------------|---0-----0---------|---0-----0-----|
B|----0-0-0-0-----0-0----0--0-0-0-0-----|-----0-----0-------|-----0-----0---|
G|-9--9-9-9-9--8--8-8--6-6--4-4-4-4--2--|-2-----2-----2--1--|-1-----1-----1-|
D|--------------------------------------|-------------------|---------------|
A|--------------------------------------|-------------------|---------------|
E|--------------------------------------|-------------------|---------------|

e|-0---0-----0-------|--0-----0------0-|-----------------------------------|
B|-------0-----0-----|----0-----0------|-0-----0-0-0-0-----0-0-0-0----0-0--|
G|---2-----2-----2-1-|------1-----1----|-2--4--4-4-4-4--6--6-6-6-6--8-8-8--|
D|-------------------|-----------------|-----------------------------------|
A|-------------------|-----------------|-----------------------------------|
E|-------------------|-----------------|-----------------------------------|

e|---------------------------------------|
B|-0----0---0---0--0-------0-------0-----|
G|-9-9--11--11--13-13--14--14--16--16----|
D|---------------------------------------|
A|---------------------------------------|
E|-------------------------------------0-|

Enjoy!!!! Pleas Rate!!!!              

| /  slide up
| \  slide down
| h  hammer-on
| p  pull-off
| ~  vibrato
| +  harmonic
| x  Mute note
=============================================================================
Suggest correction new What's this?
You can suggest a correction to this tab. Community and Mods will review your correction and vote to approve or reject it.
comments
print report bad tab
1 comment total.
0 reply
XxGibsonSGxX 4,028 wrote on September 19 2006, 08:55 pm

Excellent job, keep the tabs coming

guest
You may want to rate the tab now too:
select rating
Please do not post tabs as comments. Select "correction" instead!