Oops, an error
Loading. Please wait.

The One I Want Tab

version 1
version 1

Whole song

Interactive

4,438 views 12 this week
6 commentsread comments
1 2 3 4 5
accurate
x 10
add to favorites
launch autoscroll
font size
0
reset
how to read this tab
guitar tuner
Autoscroll
slow
fast
+/-
esc
set tempo
stop
Help us to improve Ultimate-Guitar.com Take our survey!
×
Author
Tabbers playing skills
intermediate ++
                                 THE ONE I WANT
                            As recorded by Green Day
              (From the 1990 Album 1'039 SMOOTHED OUT SLAPPY HOURS)

Words by Billie Joe Armstrong

Music by Green Day
Arranged by Green Day
Transcribed by Aaron Hetherington (The Donkey Fly)

   Intro
    Moderately Fast Rock Q=179
    E5                          F#5
   4/4
    Gtr I
||-----------|--------------------|-------------------|-------------------||
||o----------|--------------------|-------------------|------------------o||
||--4--------|-(4)----(4)--(4)----|-------------------|-------------------||
||--2--------|-(2)----(2)--(2)--4-|-(4)-4-4-4-4-4-4-4-|-4-4-4-4-4-4-4-----||
||o----------|------------------4-|-(4)-4-4-4-4-4-4-4-|-4-4-4-4-4-4-4----o||
||-----------|------------------2-|-(2)-2-2-2-2-2-2-2-|-2-2-2-2-2-2-2-----||


   Verse
    B5                     F#5
||-----------------------|---------------------|
||o----------------------|---------------------|
||--4--------------------|---------------------|
||--4--4--4--4--4--4--4--|-4-------4----4----4-|
||o-2--2--2--2--2--2--2--|-4-4--4--4-4--4-4--4-|
||-----------------------|-2-2--2--2-2--2-2--2-|


                                                   Pre-Chorus
  A5                     E5                         C#5         A5
|----------------------|---------------------||-||----------------|
|----------------------|--------------------o||-||o---------------|
|-2--------------------|---------------------||-||--6--6--6-6-6-2-|
|-2--2--2--2--2--2--2--|-2-------2----2-2-2--||-||--6--6--6-6-6-2-|
|-0--0--0--0--0--0--0--|-2-2--2--2-2--2-2-2-o||-||o-4--4--4-4-4-0-|
|----------------------|-0-0--0--0-0--0-0-0--||-||----------------|


                     B5
|------------------|---------------|-------------------||
|------------------|---------------|------------------o||
|-(2)-2-2--2-2-2-2-|-4--4--4-4-4-4-|-(4)-4-4--4-4-4-4--||
|-(2)-2-2--2-2-2-2-|-4--4--4-4-4-4-|-(4)-4-4--4-4-4-4--||
|-(0)-0-0--0-0-0-0-|-2--2--2-2-2-2-|-(2)-2-2--2-2-2-2-o||
|------------------|---------------|-------------------||


   Verse 2
    B5                     F#5
||-----------------------|---------------------|
||o----------------------|---------------------|
||--4--------------------|---------------------|
||--4--4--4--4--4--4--4--|-4-------4----4----4-|
||o-2--2--2--2--2--2--2--|-4-4--4--4-4--4-4--4-|
||-----------------------|-2-2--2--2-2--2-2--2-|


                                                   Pre-Chorus
  A5                     E5                         C#5         A5
|----------------------|---------------------||-||----------------|
|----------------------|--------------------o||-||o---------------|
|-2--------------------|---------------------||-||--6--6--6-6-6-2-|
|-2--2--2--2--2--2--2--|-2-------2----2-2-2--||-||--6--6--6-6-6-2-|
|-0--0--0--0--0--0--0--|-2-2--2--2-2--2-2-2-o||-||o-4--4--4-4-4-0-|
|----------------------|-0-0--0--0-0--0-0-0--||-||----------------|


                     B5
|------------------|---------------|-------------------||
|------------------|---------------|------------------o||
|-(2)-2-2--2-2-2-2-|-4--4--4-4-4-4-|-(4)-4-4--4-4-4-4--||
|-(2)-2-2--2-2-2-2-|-4--4--4-4-4-4-|-(4)-4-4--4-4-4-4--||
|-(0)-0-0--0-0-0-0-|-2--2--2-2-2-2-|-(2)-2-2--2-2-2-2-o||
|------------------|---------------|-------------------||


   Chorus
    E5                              F#5
||------------------|-----------------|
||o-----------------|-----------------|
||------------------|-----------------|
||--2-2-2-2-2-2-2-2-|-2-2-2-2-2-2-2-4-|
||o-2-2-2-2-2-2-2-2-|-2-2-2-2-2-2-2-4-|
||--0-0-0-0-0-0-0-0-|-0-0-0-0-0-0-0-2-|


                                      E5
                                         4x
|-------------------|--------------------||
|-------------------|-------------------o||
|-------------------|--------------------||
|-(4)-4-4-4-4-4-4-4-|-4-4-4-4-4-4-4-4----||
|-(4)-4-4-4-4-4-4-4-|-4-4-4-4-4-4-4-4---o||
|-(2)-2-2-2-2-2-2-2-|-2-2-2-2-2-2-2-2----||


   Verse 3
    B5                     F#5
||-----------------------|---------------------|
||o----------------------|---------------------|
||--4--------------------|---------------------|
||--4--4--4--4--4--4--4--|-4-------4----4----4-|
||o-2--2--2--2--2--2--2--|-4-4--4--4-4--4-4--4-|
||-----------------------|-2-2--2--2-2--2-2--2-|


                                                   Pre-Chorus
  A5                     E5                         C#5         A5
|----------------------|---------------------||-||----------------|
|----------------------|--------------------o||-||o---------------|
|-2--------------------|---------------------||-||--6--6--6-6-6-2-|
|-2--2--2--2--2--2--2--|-2-------2----2-2-2--||-||--6--6--6-6-6-2-|
|-0--0--0--0--0--0--0--|-2-2--2--2-2--2-2-2-o||-||o-4--4--4-4-4-0-|
|----------------------|-0-0--0--0-0--0-0-0--||-||----------------|


                     B5
|------------------|---------------|-------------------||
|------------------|---------------|------------------o||
|-(2)-2-2--2-2-2-2-|-4--4--4-4-4-4-|-(4)-4-4--4-4-4-4--||
|-(2)-2-2--2-2-2-2-|-4--4--4-4-4-4-|-(4)-4-4--4-4-4-4--||
|-(0)-0-0--0-0-0-0-|-2--2--2-2-2-2-|-(2)-2-2--2-2-2-2-o||
|------------------|---------------|-------------------||


   Chorus
    E5                              F#5
                                                                             4x
||------------------|-----------------|-------------------|------------------||
||o-----------------|-----------------|-------------------|-----------------o||
||------------------|-----------------|-------------------|------------------||
||--2-2-2-2-2-2-2-2-|-2-2-2-2-2-2-2-4-|-(4)-4-4-4-4-4-4-4-|-4-4-4-4-4-4-4-4--||
||o-2-2-2-2-2-2-2-2-|-2-2-2-2-2-2-2-4-|-(4)-4-4-4-4-4-4-4-|-4-4-4-4-4-4-4-4-o||
||--0-0-0-0-0-0-0-0-|-0-0-0-0-0-0-0-2-|-(2)-2-2-2-2-2-2-2-|-2-2-2-2-2-2-2-2--||


 Solo
                      F#5
|-------------------|-------------------|
|-------------------|-------------------|
|-4-----------------|-------------------|
|-4-4-4-4-4-4-4--4--|-------------------|
|-2-2-2-2-2-2-2--2--|--4-4-4-4-4--4-4-4-|
|-------------------|--2-2-2-2-2--2-2-2-|
|
| Gtr II
|-------0---0---(0)-|------0---0----0---|
|-4---4---4---4-----|-\2-2---2---/4---4-|
|-------------------|-------------------|
|-------------------|-------------------|
|-------------------|-------------------|
|-------------------|-------------------|


  A5               E5                B5
|----------------|-----------------|-----------------|
|----------------|-----------------|-----------------|
|----------------|-----------------|-4---------------|
|-2--2-2-2-2-2-2-|-----------------|-4--4-4-4-4-4-4--|
|-0--0-0-0-0-0-0-|-2-2-2-2-2-2-2-2-|-2--2-2-2-2-2-2--|
|----------------|-0-0-0-0-0-0-0-0-|-----------------|
|
|----0-----0-----|-----0-----0-----|----------0------|
|------0-----0---|-------0-----0---|-4--4-4-4---4-0--|
|-2------2-----2-|-1-------1-----1-|-----------------|
|----------------|-----------------|-----------------|
|----------------|-----------------|-----------------|
|----------------|-----------------|-----------------|


  F#5               A5               E5                C#5
|-----------------|----------------|-----------------|-----------------|
|-----------------|----------------|-----------------|-----------------|
|-----------------|----------------|-----------------|-6--6---6-6-6-2--|
|-----------------|-2--2-2-2-2-2-2-|-----------------|-6--6---6-6-6-2--|
|-4-4-4-4-4-4-4-4-|-0--0-0-0-0-0-0-|-2-2-2-2-2-2-2-2-|-4--4---4-4-4-0--|
|-2-2-2-2-2-2-2-2-|----------------|-0-0-0-0-0-0-0-0-|-----------------|
|
|---0-------0---0-|----0-----0-----|-----0-----0-----|-----------------|
|-2---2-2-4---2---|------0-----0---|-------0-----0---|-0--0-0-0-0-0-0--|
|-----------------|-2------2-----2-|-1-------1-----1-|----4-4-4-4-4-6--|
|-----------------|----------------|-----------------|-----------------|
|-----------------|----------------|-----------------|-----------------|
|-----------------|----------------|-----------------|-----------------|


      A5              B5
|-------------------|------------------|
|-------------------|------------------|
|-(2)-2-2---2-2-2-2-|-4---4---4-4-4--4-|
|-(2)-2-2---2-2-2-2-|-4---4---4-4-4--4-|
|-(0)-0-0---0-0-0-0-|-2---2---2-2-2--2-|
|-------------------|------------------|
|
|-------------------|------------------|
|--0--0-0-0---0-0-0-|-0-0-0-0-0-0-0----|
|--6--6-6-6-8-8-8-8-|-8-8-9-9-9-9-9-11-|
|-------------------|------------------|
|-------------------|------------------|
|-------------------|------------------|


                          C#5
|-----------------------|----------------------|
|-----------------------|----------------------|
|-(4)--4--4---4-4--4--4-|--6---6---6--6--6--2--|
|-(4)--4--4---4-4--4--4-|--6---6---6--6--6--2--|
|-(2)--2--2---2-2--2--2-|--4---4---4--4--4--0--|
|-----------------------|----------------------|
|
|-----------------------|----------------------|
|--0---0--0---0----0--0-|--0---0---0--0--0--0--|
|-11--11-11--11---11-13-|-13--13--11-11-11-11--|
|-----------------------|----------------------|
|-----------------------|----------------------|
|-----------------------|----------------------|


      A5             B5                                 C#5
|------------------|---------------|------------------|-----------------|
|------------------|---------------|------------------|-----------------|
|-(2)-2-2--2-2-2-2-|-4--4--4-4-4-4-|-(4)-4-4--4-4-4-4-|-6--6---6-6-6-2--|
|-(2)-2-2--2-2-2-2-|-4--4--4-4-4-4-|-(4)-4-4--4-4-4-4-|-6--6---6-6-6-2--|
|-(0)-0-0--0-0-0-0-|-2--2--2-2-2-2-|-(2)-2-2--2-2-2-2-|-4--4---4-4-4-0--|
|------------------|---------------|------------------|-----------------|
|
|------------------|---------------|------------------|----0-----0------|
|--0--0-0--0-0-0-0-|-0--0--0-0-0-0-|-(0)-0-0--0-0-0-0-|------0-----0----|
|-11--9-9--9-9-9-8-|-8--8--6-6-4-4-|-(4)-4-4--4-4-4-2-|-2------2-----2--|
|------------------|---------------|------------------|-----------------|
|------------------|---------------|------------------|-----------------|
|------------------|---------------|------------------|-----------------|


      A5                 B5                                C#5
|-------------------|----------------|-------------------|------------------|
|-------------------|----------------|-------------------|------------------|
|-(2)-2-2---2-2-2-2-|-4--4---4-4-4-4-|-(4)-4-4---4-4-4-4-|-6---6---6-6-6-2--|
|-(2)-2-2---2-2-2-2-|-4--4---4-4-4-4-|-(4)-4-4---4-4-4-4-|-6---6---6-6-6-2--|
|-(0)-0-0---0-0-0-0-|-2--2---2-2-2-2-|-(2)-2-2---2-2-2-2-|-4---4---4-4-4-0--|
|-------------------|----------------|-------------------|------------------|
|
|-------0-----0-----|----0-----0-----|-------0-----0-----|------------------|
|---------0-----0---|------0-----0---|---------0-----0---|-0---0-0-0-0---0--|
|--1--------1-----1-|-2------2-----2-|--1--------1-----1-|---4-4-4-4-4-6-6--|
|-------------------|----------------|-------------------|------------------|
|-------------------|----------------|-------------------|------------------|
|-------------------|----------------|-------------------|------------------|


      A5              B5
|-------------------|----------------------|
|-------------------|----------------------|
|-(2)-2-2---2-2-2-2-|-4---4-----4--4--4--4-|
|-(2)-2-2---2-2-2-2-|-4---4-----4--4--4--4-|
|-(0)-0-0---0-0-0-0-|-2---2-----2--2--2--2-|
|-------------------|----------------------|
|
|-------------------|----------------------|
|--0--0-0-----0-0-0-|-0------0--0--0--0----|
|--6--6-6-8---8-8-8-|-9-9---11-11-13-13-13-|
|-------------------|----------------------|
|-------------------|----------------------|
|-------------------|----------------------|


                           Chorus
                            E5
|-----------------------||-------------------|
|-----------------------||o------------------|
|-(4)--4--4---4--4--4-4-||-------------------|
|-(4)--4--4---4--4--4-4-||--2-2-2-2-2-2-2-2--|
|-(2)--2--2---2--2--2-2-||o-2-2-2-2-2-2-2-2--|
|-----------------------||--0-0-0-0-0-0-0-0--|
|
|-----------------------||-------------------|
|---------0---0--0------||o------------------|
|-14--14-14--16-16-16---||-------------------|
|-----------------------||-------------------|
|-----------------------||o------------------|
|-----------------------||-------------------|


  E5                F#5
                                                         3x
|-----------------|-------------------|------------------||
|-----------------|-------------------|-----------------o||
|-----------------|-------------------|------------------||
|-2-2-2-2-2-2-2-4-|-(4)-4-4-4-4-4-4-4-|-4-4-4-4-4-4-4-4--||
|-2-2-2-2-2-2-2-4-|-(4)-4-4-4-4-4-4-4-|-4-4-4-4-4-4-4-4-o||
|-0-0-0-0-0-0-0-2-|-(2)-2-2-2-2-2-2-2-|-2-2-2-2-2-2-2-2--||


  E5                              F#5
|-----------------|-----------------|
|-----------------|-----------------|
|-----------------|-----------------|
|-2-2-2-2-2-2-2-2-|-2-2-2-2-2-2-2-4-|
|-2-2-2-2-2-2-2-2-|-2-2-2-2-2-2-2-4-|
|-0-0-0-0-0-0-0-0-|-0-0-0-0-0-0-0-2-|
|
|                   Gtr II
|-----------------|-----------------|
|-----------------|-----------------|
|-----------------|-----------------|
|-----------------|-----------------|
|-----------------|-----------------|
|-----------------|-----------------|


                                        B5
|-------------------|-----------------|-------|
|-------------------|-----------------|-------|
|-------------------|-----------------|-------|
|-(4)-4-4-4-4-4-4-4-|-4-4-4-4-4-4-4-4-|--4----|
|-(4)-4-4-4-4-4-4-4-|-4-4-4-4-4-4-4-4-|--2----|
|-(2)-2-2-2-2-2-2-2-|-2-2-2-2-2-2-2-2-|-------|
|
|-------------------|-----------------|-------|
|-------------------|-----------------|-------|
|-------------------|-----------------|-------|
|-------------------|-----------------|-------|
|-------------------|-----------------|-------|
|-------------------|-----------------|-19----|


|-----------------|------------|---------------------*|
|-----------------|------------|---------------------*|
|-----------------|------------|---------------------*|
|--(4)------------|-(4)--------|-(4)----(4)--(4)-----*|
|--(2)------------|-(2)--------|-(2)----(2)--(2)--2\-*|
|-----------------|------------|---------------------*|
|
|-----------------|------------|---------------------*|
|-----------------|------------|---------------------*|
|-----------------|------------|---------------------*|
|-----------------|------------|---------------------*|
|-----------------|------------|---------------------*|
|-(19)----(19)----|------------|---------------------*|
Suggest correction
What's this?
You can suggest a correction to this tab. Community and Mods will review your correction and vote to approve or reject it.
comments
print report bad tab
6 comments total. Showing first comments.
0 reply
Donkey Fly 6,832 wrote on January 5 2006, 01:55 pm

I dont know who the Fuck keeps one star-ing my tabs but they better ****ing stop.....

0 reply
RuubSuub 32 wrote on May 21 2006, 05:50 am

dude...this is just a bad tab ;)...and uhm...its not very..clear
its messy......use tablature of ultimate-guitar.com....much better :)

0 reply
Thedboy 2,172 wrote on November 19 2007, 03:31 pm

its pretty good. not too clear in places. but its ok.

guest
You may want to rate the tab now too:
select rating
Please do not post tabs as comments. Select "correction" instead!