Oops, an error
Loading. Please wait.

The One I Want Tab

version 2
version 2

Whole song

Interactive

1,148 views 3 this week
no commentswrite comment
1 2 3 4 5
1 last vote to show rating
add to favorites
launch autoscroll
font size
0
reset
how to read this tab
guitar tuner
Autoscroll
slow
fast
+/-
esc
set tempo
stop
Help us to improve Ultimate-Guitar.com Take our survey!
×
Author
Difficulty
novice
Tabbed by: Dominik Kurowski

I think this tab is correct

So... have fun

Verse:

e|--------------------------------------|
B|--------------------------------------|
G|------4---------------2---------------|
D|------4-------4-------2-------2-------|
A|------2-------4-------0-------2-------|
E|--------------2---------------0-------|


Bridge/pre-chorus:

e|--------------------------------------|
B|--------------------------------------|
G|------6---------------4---------------|
D|------6-------2-------4---------------|
A|------4-------2-------2---------------|
E|--------------0-----------------------|

e|--------------------------------------|
B|--------------------------------------|
G|------6-------------------------------|
D|------6-------2-------9---------------|
A|------4-------2-------9---------------|
E|--------------0-------7---------------|


Chorus:


e|--------------------------------------|
B|--------------------------------------|
G|--------------------------------------|
D|------2-------4-----------------------|
A|------2-------4-----------------------|
E|------0-------2-----------------------|

Solo:

e|------0-----0-----------0----0--------0------------------------|
B|-4-4-----4-----4---2-2-----2-------4-----4---------------------|
G|---------------------------------------------------------------|
D|---------------------------------------------------------------|
A|---------------------------------------------------------------|
E|---------------------------------------------------------------|

e|---0------0------|---0-----0-----|----------0-------0-------0---0---------|
B|------0-----0----|-----0-----0---|-4--4-4-4---4-0-2---2-2-4---2-----------|
G|-2------2-----2--|-1-----1-----1-|----------------------------------------|
D|-----------------|---------------|----------------------------------------|
A|-----------------|---------------|----------------------------------------|
E|-----------------|---------------|----------------------------------------|

e|---0-----0-----|---0-----0------|---------------------------------------|
B|-----0-----0---|-----0-----0----|-0--0-0-0-0-0--0-0-0-0-0----0-0-0-0-0--|
G|-2-----2-----2-|-1-----1-----1--|-2--4-4-4-4-4--6-6-6-6-6----8-8-8-8-8--|
D|---------------|----------------|---------------------------------------|
A|---------------|----------------|---------------------------------------|
E|---------------|----------------|---------------------------------------|

e|--------------------------------------------------------------------------|
B|----0-0-0-0-0-------0--0--0--0--0------0--0-------0--0--0--0--------------|
G|----9-9-9-9-9------11-11-11-11-11------13-13------11-11-11-11-------------|
D|--------------------------------------------------------------------------|
A|--------------------------------------------------------------------------|
E|--------------------------------------------------------------------------|

e|--------------------------------------|---0-----0---------|---0-----0-----|
B|----0-0-0-0-----0-0----0--0-0-0-0-----|-----0-----0-------|-----0-----0---|
G|----9-9-9-9-----8-8----6--4-4-4-4-----|-2-----2-----2--1--|-1-----1-----1-|
D|--------------------------------------|-------------------|---------------|
A|--------------------------------------|-------------------|---------------|
E|--------------------------------------|-------------------|---------------|

e|-0---0-----0-------|--0-----0------0-|-----------------------------------|
B|-------0-----0-----|----0-----0------|-0-----0-0-0-0-----0-0-0-0----0-0--|
G|---2-----2-----2-1-|------1-----1----|-2-----4-4-4-4-----6-6-6-6--8-8-8--|
D|-------------------|-----------------|-----------------------------------|
A|-------------------|-----------------|-----------------------------------|
E|-------------------|-----------------|-----------------------------------|

e|---------------------------------------|
B|-0----0---0---0--0-------0-----0-------|
G|-9----11--11--13-13------14----16------|
D|---------------------------------------|
A|---------------------------------------|
Suggest correction
Give kudos to tab author, rate the tab!
1 2 3 4 5
comments
print report bad tab
guest
You may want to rate the tab now too:
select rating
Wanna post a correction for this tab? Suggest correction