Oops, an error
Loading. Please wait.

The Static Age Bass Tab

version 1
version 1

Whole song

Interactive

7,543 views 1 this week
no commentswrite comment
1 2 3 4 5
accurate
x 3
add to favorites
launch autoscroll
font size
0
reset
guitar tuner
Tab Pro tools
  • play this tab
  • loop segment
  • change instrument
  • show fretboard
  • metronome
×
Best way to learn
"The Static Age"
Autoscroll
slow
fast
+/-
esc
set tempo
stop
Contributor
-------------------------------------------------------------------------------
			   The Static Age-Green Day
-------------------------------------------------------------------------------

Tabbed By:Stjimmy34 
Tuning:Standard

Verse
G|---------------------------------|-----------------------------------------|
D|----------------------------(x2)-|-----------------------------------------|
A|-\2x16-7x8-----2x16-7x8-9x8------|-2x16-7x8-----2x16-7x8-------------------|
E|-----------2x8-------------------|----------2x8----------2x6---------------|

                     slowly release palm mute
G|---------------------------------------------------------------------------|
D|-------------------4444444444444444----------------------------------------|
A|---------------------------------------------------------------------------|
E|-22-0-222222-22-0----------------------------------------------------------|
                     .........

Chorus
G|----------------------------|----------------------------------------------|
D|----------------------------|------------444444----------------------------|
A|-2-2-2222--------------(x3)-|-2-2-2222-------------------------------------|
E|-----------0-00--2-22-------|----------2-----------------------------------|

Verse

Chorus 2
G|----------------------------|----------------------------------------------|
D|----------------------------|----------------------------------------------|
A|-2-2-2222--------------(x3)-|-2x16-----------------------------------------|
E|-----------0-00--2-22-------|----------------------------------------------|


Bridge
G|---------------------------------------------------------------------------|
D|---------------------------------------------------------------------------|
A|-7x16----------7x16\/99999-7-9-10x8----------------------------------------|
E|-------7x16\---------------------------------------------------------------|


Guitar solo
G|---------------------------------|-----------------------------------------|
D|---------------------------------|-----------------------------------------|
A|-3x16-8x8-----7x16-8x8------(x2)-|-----------------------------------------|
E|----------3x8----------3x8-------|-4x8-5x4-6x4-77-88-99-10-10-11\----------|


Verse 3
G|---------------------------------------------------------------------------|
D|--------------------5x8-7x8------------------------------------------------|
A|-5x16----------5x16----------5x16----------5x16----------------------------|
E|------3x8-5x8---------------------3x8-5x8-------3x8-5x6-55-3-555555-3------|
   
   slowly release palm mute
G|---------------------------------------------------------------------------|
D|-7777777777777777----------------------------------------------------------|
A|---------------------------------------------------------------------------|
E|---------------------------------------------------------------------------|
   ........


Final Chorus  
  Play these two sections three times
G|------------------------|--------------------------------------------------|
D|----------555-777--(x3)-|----------77777777--------------------------------|
A|-5-5-5555---------------|-5-5-5555-----------------------------------------|
E|------------------------|--------------------------------------------------|

G|------------------------|---------------------------------------------------|
D|----------555-777-------|---------------------------------------------------|
A|-5-5-5555----------(x3)-|-5x16----------------------------------------------|
E|------------------------|------6x8-8x8-10-----------------------------------|


| /  slide up
| \  slide down
| h  hammer-on
| p  pull-off
| ~  vibrato
| +  harmonic
| x  Mute note
===============================================================================
comments
We did not receive enough feedback on this tab! Please rate:
print report bad tab
1 2 3 4 5
I want to post or [tab]
guest
You may want to rate the tab now too:
select rating
Please do not post tabs as comments. Select "correction" instead!