Oops, an error
Loading. Please wait.

Tired Of Waiting For You Bass Tab

1,310 views 1 this week
no commentswrite comment
1 2 3 4 5
1 last vote to show rating
add to favorites
launch autoscroll
font size
0
reset
guitar tuner
Autoscroll
slow
fast
+/-
esc
set tempo
stop
Help us to improve Ultimate-Guitar.com Take our survey!
×
Author
Intro and Chorus

G|---------------------------------------------------------------------------|
D|---------------------------------------------------------------------------|
A|---------------------------------------------------------------------------|
E|--1/3-3/1-1/3-3/1-1/3-3/1-1/3-3/1-1/3-3/1----------------------------------|

G|---------------------------------------------------------------------------|
D|---------------------------------------------------------------------------|
A|---------------------------------------------------------------------------|
E|--1/3-3/1-1/3-3/1-1/3-3/1-1/3-3/1-1/3-3/1----------------------------------|

G|---------------------------------------------------------------------------|
D|---------------------------------------------------------------------------|
A|---------------------------------------------------------------------------|
E|--1/3-3/1-1/3-3/1-1/3-3/1-1/3----------------------------------------------|

Verse


G|---------------------------------------------------------------------------|
D|---------------------------------------------------------------------------|
A|---33---33---33---33---33---33---33----------------------------------------|
E|-33--33---33---33---33---33---33---3---------------------------------------|

G|---------------------------------------------------------------------------|
D|---------------------------------------------------------------------------|
A|---------------------------------------------------------------------------|
E|------7-5-7---7-5-7--------------------------------------------------------|
"its your life"


G|---------------------------------------------------------------------------|
D|---------------------------------------------------------------------------|
A|---------------------------------------------------------------------------|
E|----5555-3333-5555-3333----------------------------------------------------|
Please don't keep me waiting

Outro
G|---------------------------------------------------------------------------|
D|---------------------------------------------------------------------------|
A|---------------------------------------------------------------------------|
E|--1/3-1/3-1/3-1/3-1/3-1/3-1/3-1/3-1/3-1/3-1/3-1/3-1/3-1/3-1/3-1/3-1/3-1/3--|

G|---------------------------------------------------------------------------|
D|---------------------------------------------------------------------------|
A|---------------------------------------------------------------------------|
E|--1/3-1/3-1/3-1/3-1/3-1/3-1/3-1/3-1/3-1/3-1/3------------------------------|
Suggest correction
Give kudos to tab author, rate the tab!
1 2 3 4 5
comments
print report bad tab
guest
You may want to rate the tab now too:
select rating
Wanna post a correction for this tab? Suggest correction