Oops, an error
Loading. Please wait.

Too Dumb To Die Tab

4,579 views 315 this week
2 commentsread comments
1 2 3 4 5
x 11
add to favorites
launch autoscroll
font size
0
reset
how to read this tab
guitar tuner
Autoscroll
slow
fast
+/-
esc
set tempo
stop
Help us to improve Ultimate-Guitar.com Take our survey!
×
Author
Difficulty
novice
About this tab version
It's the full tab with solo. Was this info helpful? Yes No
[Intro]
e|------x-x-x-x------x-x------x-x-x-x------x-x-----------------------x-x-x-x------x-x-|
B|------x-x-x-x------x-x------x-x-x-x------x-x-----------------------x-x-x-x------x-x-|
G|------x-x-x-x-66-6-x-x-7-77-x-x-x-x------x-x------6-6-6-6-6666-7-7-x-x-x-x------x-x-|
D|--7-7-x-x-x-x-66-6-x-x-7-77-x-x-x-x-77-7-x-x--7-7-6-6-6-6-6666-7-7-x-x-x-x-77-7-x-x-|  X2
A|--7-7-x-x-x-x-44-4-x-x-5-55-x-x-x-x-77-7-x-x--7-7-4-4-4-4-4444-5-5-x-x-x-x-77-7-x-x-|
E|--5-5-x-x-x-x------x-x------x-x-x-x-55-5-x-x--5-5------------------x-x-x-x-55-5-x-x-| 

e|------x-x-x-x------x-x------x-x-x-x------x-x-|
B|------x-x-x-x------x-x------x-x-x-x------x-x-|
G|------x-x-x-x-66-6-x-x-7-77-x-x-x-x------x-x-|
D|--7-7-x-x-x-x-66-6-x-x-7-77-x-x-x-x-77-7-x-x-|
A|--7-7-x-x-x-x-44-4-x-x-5-55-x-x-x-x-77-7-x-x-|
E|--5-5-x-x-x-x------x-x------x-x-x-x-55-5-x-x-|

(Distorted)
e|------------------------------------------|
B|------------------------------------------|
G|----------------666-----------------------|
D|--77777---77777-666---44444---44444-222---| X2
A|--77777---77777-444---44444---44444-222---|
E|--55555---55555-------22222---22222-000---|

[Verse 1]
e|---------------------------------------------------------------------------|
B|---------------------------------------------------------------------------|
G|---------6-6-66666---------------------------------------------------------|
D|--7-77---6-6-66666--4-44-4-4-44444-----------------------------------------| X4
A|--7-77---4-4-44444--4-44-4-4-44444-----------------------------------------|
E|--5-55--------------2-22-2-2-22222-----------------------------------------|

[Chorus]
e|------------------------------------xx-------------------------------------|
B|------------------------------------xx-------------------------------------|
G|------------------77777777-99999999-xx------------------77777777-99999999--|
D|-7777777777777777-77777777-99999999-xx-7777777777777777-77777777-99999999--| X2
A|-7777777777777777-55555555-77777777-xx-7777777777777777-55555555-77777777--|
E|-5555555555555555-------------------xx-5555555555555555--------------------|

[Post-Chorus]
e|------------------------------0-------------|
B|------------------------------0-------------|
G|--------5b6-------666---------0-------------|
D|--77777-----77777-666---44444-0-44444-222---| X2
A|--77777-----77777-444---44444-0-44444-222---|
E|--55555-----55555-------22222-0-22222-000---|

[Verse 2]
e|----------------------|  |---------------------------------------------------|
B|----------------------|  |---------------------------------------------------|
G|----------------------|  |--------6-6-66666----------------------------------|
D|----------------------|X2|-7-77---6-6-66666--4-44-4-4-44444------------------| X2
A|--------/4------------|  |-7-77---4-4-44444--4-44-4-4-44444------------------|
E|-/5-----------------2-|  |-5-55--------------2-22-2-2-22222------------------|

[Chorus]
e|------------------------------------xx-------------------------------------|
B|------------------------------------xx-------------------------------------|
G|------------------77777777-99999999-xx------------------77777777-99999999--|
D|-7777777777777777-77777777-99999999-xx-7777777777777777-77777777-99999999--| X2
A|-7777777777777777-55555555-77777777-xx-7777777777777777-55555555-77777777--|
E|-5555555555555555-------------------xx-5555555555555555--------------------|

[Solo]
e|---------------------------------------------------------------------------|
B|-222222222222--10101010-777777--9/7/5/222222-------------------------------|
G|---------------------------------------------------------------------------|
D|---------------------------------------------------------------------------|
A|---------------------------------------------------------------------------|
E|---------------------------------------------------------------------------|

e|---------------------------------------------------------------------------|
B|-101010101010-12-1414141414141414-----1919/1717/1414/17/1919191919-17------|
G|---------------------------------------------------------------------------|
D|---------------------------------------------------------------------------|
A|---------------------------------------------------------------------------|
E|---------------------------------------------------------------------------|

[Chorus]
e|------------------------------------xx-------------------------------------|
B|------------------------------------xx-------------------------------------|
G|------------------77777777-99999999-xx------------------77777777-99999999--|
D|-7777777777777777-77777777-99999999-xx-7777777777777777-77777777-99999999--| X2
A|-7777777777777777-55555555-77777777-xx-7777777777777777-55555555-77777777--|
E|-5555555555555555-------------------xx-5555555555555555--------------------|

[Outro]
e|------------------------------0-------------|
B|------------------------------0-------------|
G|--------5b6-------666---------0-------------|
D|--77777-----77777-666---44444-0-44444-222---| X2
A|--77777-----77777-444---44444-0-44444-222---|
E|--55555-----55555-------22222-0-22222-000---|



************************************

| x  Dead note
| b  Bend
| /  Slide up 

************************************
Suggest correction
comments
print report bad tab
2 comments total.
0 reply
deathfromala 4,948 Oct 02, 2016 03:24 AM

Not bad.
Think the 5b6 should be 4b6 though and the end of the solo is
19\17\14/17/19 not 20\18\15 etc.
Sick tab though.

0 reply
MikeBJRock 127 Oct 03, 2016 06:46 PM

Fixed. Thank you

guest
You may want to rate the tab now too:
select rating
Wanna post a correction for this tab? Suggest correction