Oops, an error
Loading. Please wait.

Too Much Too Soon Bass Tab

version 1
version 1

Whole song

Interactive

1,673 views 1 this week
2 commentsread comments
1 2 3 4 5
1 last vote to show rating
add to favorites
launch autoscroll
font size
0
reset
guitar tuner
Autoscroll
slow
fast
+/-
esc
set tempo
stop
Help us to improve Ultimate-Guitar.com Take our survey!
×
Author
-----------------------------------------------------------------------------------
				<< GREEN DAY >> - TOO MUCH TOO SOON (AMERICAN IDIOT B-SIDE)
-----------------------------------------------------------------------------------

[ Tabber: LUIZ MANZANO (BRASIL) ]
[ e-mail: lukdeluca@yahoo.com.br ]

Intro
G|------------------------------------------------|
D|---------42---------------------42--------------|
A|2-22-22-2-----------79-2-22-22-2-----------79---|
E|-----------0-00-00-0--------------0-00-00-0-----|

"She's always living like she's running out of time..." (2x)
"He's talking shit about how it's better way back when..." (2x)
G|-------------------------------------------------------|
D|---------------------------------------22222-4444444---|
A|2222222222222--------------222222222222----------------|
E|-------------00000-22222222----------------------------|

"The looks are always so deceiving..."
G|-----------------------------------------------|
D|22222222222------------------------------------|
A|-----------------------------------------------|
E|-----------22222222-44-2-0000000000-22222222---|

"Too you, too much too soon..."
G|--------------------------------------------------------------------------------------------|
D|24---------42---------------------42---------------------42---------------------42-----24---|
A|--2-22-22-2-----------79-2-22-22-2-----------79-2-22-22-2-----------79-2-22-22-2------------|
E|-------------0-00-00-0--------------0-00-00-0--------------0-00-00-0--------------0-00------|

Riff
G|--------------------------------|
D|------44-2-----------44-2-------|
A|2-22-2---------2-22-2-----------|
E|----------0-020---------0-020---|

"She packs her bags and says goodbye and bon voyage..."
G|---------------------------------------------------------|
D|-----------------4444444---------------------------------|
A|-66666-77777-2222--------66666-77777-2222-2/9-99999999---|
E|4-----0-----------------4-----0--------------------------|

<>


| /  slide up
| \  slide down
| h  hammer-on
| p  pull-off
| ~  vibrato
| +  harmonic
| x  Mute note
===============================================================================
Suggest correction
Give kudos to tab author, rate the tab!
1 2 3 4 5
comments
print report bad tab
2 comments total.
0 reply
druggietoad2k5 92 Oct 19, 2009 11:30 AM

Good but the breakdown part was half wrong

0 reply
druggietoad2k5 92 Oct 19, 2009 11:41 AM

Breakdown should be:

Track 1
E E E E E E E E E E E E E E E E
G||--------------------------|--------------------------|
D||--------------------------|--------------------------|
A||--------------------------|--7--7--7--7--7--7--7--7--|
E||--4--4--4--4--4--4--4--4--|--------------------------|

E E E E E E E E E E E E E E E E
--------------------------|--------------------------|
--------------------------|--------------------------|
--2--2--2--2--2--2--2--2--|--9--9--9--9--9--9--9--9--|
--------------------------|--------------------------|

E E E E E E E E E E E E E E E E
--------------------------|--------------------------|
--------------------------|--------------------------|
--------------------------|--7--7--7--7--7--7--7--7--|
--4--4--4--4--4--4--4--4--|--------------------------|

E E E E E E E E E E E E E E E E
---------------------------|--------------------------|
---------------------------|--------------------------|
--2--2--2--2--2--2--2--2s--|--9--9--9--9--9--9--9--9--|
---------------------------|--------------------------|

E E E E E E E E
--------------------------||
--------------------------||
--9-----------------------||
--------------------------||

guest
You may want to rate the tab now too:
select rating
Wanna post a correction for this tab? Suggest correction