Oops, an error
Loading. Please wait.

Too Much Too Soon Tab

version 6
version 6

Interactive

821 views 1 this week
no commentswrite comment
1 2 3 4 5
please rate
add to favorites
launch autoscroll
font size
0
reset
how to read this tab
guitar tuner
Autoscroll
slow
fast
+/-
esc
set tempo
stop
Help us to improve Ultimate-Guitar.com Take our survey!
×
Author
HAZEUK 34
Song: Too Much Too Soon
Artist: Green Day
Album: American Idiot B-Side
Tuning: Standard (E-A-D-G-B-e)

Guitar 1 - Distortion (Standard)
Guitar 2 - Distortion (Standard)

Intro - Guitar 1:

e|-------------------------------------------------------------------------|
B|-------------------------------------------------------------------------|
G|-11----4--4444--4444---4-------------------------------------------------|
D|-11----4--4444--4444---4--4--2--2222-2222--2--4--------------------------|
A|-9-----2--2222--2222---2--4--2--2222-2222--2--4--------x2----------------|
E|--------------------------2--0--0000-0000--0--2--------------------------|

Intro - Guitar 2:

e|--------------------------------------------------------------|
B|--------------------------------------------------------------|
G|--4--4444--4444--4--8-6-8-9--9999--9999--9-11-----------------|
D|--4--4444--4444--4--8-6-8-9--9999--9999--9-11-----------------|
A|--2--2222--2222--2--6-4-6-7--7777--7777--7-9-------x2---------|
E|--------------------------------------------------------------|

Verse - Both Guitars:

e|-------------------------------------------------------------------------|
B|-------------------------------------------------------------------------|
G|---4-4444444-------------------------------------------------------------|
D|---4-4444444---2-22222222-----4-44444444---------------------------------|
A|---2-2222222---2-22222222-----4-44444444-------x4------------------------|
E|---------------0-00000000-----2-22222222---------------------------------|
PM     .......      ........        ........

Pre-Chorus - Both Guitars:

e|--00000000000----------------------------------------------|
B|--00000000000----------------------------------------------|
G|--xxxxxxxxxxx----------------------------------------------|
D|--22222222222---444444444--66/4----------------------------|
A|--22222222222---444444444--66/4----------------------------|
E|--00000000000---222222222--44/2----------------------------|

Pre-Chorus continued

e|--00000000000----------------------------------------------|
B|--00000000000----------------------------------------------|
G|--xxxxxxxxxxx----------------------------------------------|
D|--22222222222---444444444--2-4-----------------------------|
A|--22222222222---444444444--2-4-----------------------------|
E|--00000000000---222222222--0-2-----------------------------|

Chorus - Guitar 1:

e|-------------------------------------------------------------|
B|-------------------------------------------------------------|
G|--4--4444--4444---4------------------------------------------|
D|--4--4444--4444---4--4--2--2222-2222--2--4-------------------|
A|--2--2222--2222---2--4--2--2222-2222--2--4--------x4---------|
E|---------------------2--0--0000-0000--0--2-------------------|

Chorus - Guitar 2:

e|--------------------------------------------------------------|
B|--------------------------------------------------------------|
G|--4--4444--4444--4--8-6-8-9--9999--9999--9-11-----------------|
D|--4--4444--4444--4--8-6-8-9--9999--9999--9-11-----------------|
A|--2--2222--2222--2--6-4-6-7--7777--7777--7-9-------x3---------|
E|--------------------------------------------------------------|

Chorus - Guitar 2 cont:

e|--------------------------------------------------------------|
B|--------------------------------------------------------------|
G|--4--4444--4444--4--8-6-8-9--9999--11-------------------------|
D|--4--4444--4444--4--8-6-8-9--9999--11-------------------------|
A|--2--2222--2222--2--6-4-6-7--7777--9--------------------------|
E|--------------------------------------------------------------|

Post-Chorus - Both Guitars:

e|-------------------------------------------------------------------------|
B|-------------------------------------------------------------------------|
G|--4--4444--4444---4------------------------------------------------------|
D|--4--4444--4444---4--4-4-4-4--2--2222-2222-------------------------------|
A|--2--2222--2222---2--4-4-4-4--2--2222-2222--------x2---------------------|
E|---------------------2-2-2-2--0--0000-0000-------------------------------|

Then Repeat Verse

Then Repeat Pre-Chorus

Then Repeat Chorus

Then Repeat Post Chorus

BRIDGE
e|-------------------------------------------------------------------------|
B|----7/9~--9/5--5p4--4/2---7h9~--9/5--5p4~--------------------------------|
G|-------------------------------------------------------------------------|
D|---------------------------------------------44444444444-----------------|
A|---------------------------------------------44444444444-----------------|
E|-----------------------------------------12/-22222222222-----------------|

Repeat Chorus during the Woah Oh Oh part

Repeat Chorus

Repeat Post Chorus during the second Woah oh oh oh oh part

End on:

e|--------------------|
B|--------------------|
G|--4~-------4--------|
D|--4~-------4--------|
A|--2~-------2--------|
E|--------------------|
             *

Key:
p= Pull off
h= Hammer on
*= sticcato note (short, don't let ring out)
/= slide
.= palm mute
~= let ring
x= mute string
Suggest correction
What's this?
You can suggest a correction to this tab. Community and Mods will review your correction and vote to approve or reject it.
comments
We did not receive enough feedback on this tab! Please rate:
print report bad tab
1 2 3 4 5
guest
You may want to rate the tab now too:
select rating
Please do not post tabs as comments. Select "correction" instead!