Oops, an error
Loading. Please wait.

Troubled Times Bass Tab

715 views 33 this week
no commentswrite comment
1 2 3 4 5
x 4
add to favorites
launch autoscroll
font size
0
reset
guitar tuner
Autoscroll
slow
fast
+/-
esc
set tempo
stop
Help us to improve Ultimate-Guitar.com Take our survey!
×
Author
Difficulty
novice
------------------------------------------------------------------------------
                     Troubled Times - Green Day
------------------------------------------------------------------------------

Tabbed by: ChrisT

From the Album: Revolution Radio (2016)

Tuning: Standard

Verse
G|--------------------------------------------------------------------------------------|
D|----------------------------------/12-12-12-10-10-10-10-10/14-14-14-14-14-14-14-14----|
A|--------------------------------------------------------------------------------------|
E|---5-5-5-5-5-5-5-5-3-3-3-3-3-3-3-3----------------------------------------------------|

G|------------------------------------------------------------------------------|
D|----------------------------------/12-12-12-10-10-10-10-10--------------------|
A|-----------------------------------------------------------7-7-7-7-7-7-7-7----|
E|---5-5-5-5-5-5-5-5-3-3-3-3-3-3-3-3--------------------------------------------|

G|------------------------------------------------------------------------------|
D|---12-12-12-12-12-12-12-12----------------------------------------------------|
A|-------------------------------------------3-3-3-3-2-2-2-2--------------------|
E|---------------------------3-3-3-3-3-3-3-3-----------------5-5-5-5-3-3-3-3----|

G|--------------------------------------------|
D|---12-12-12-10-10-10-10-10------------------|
A|---------------------------7-7-7-7-7--------|
E|--------------------------------------------|

Chorus
G|-------------------------------------------------------------|
D|o-----------------------------------------------------------o|
A|o----------------3--3-3----------------------3--3-5-7--7----o|
E|---5--5-5-1--1-1--------3--3-3-5--5-5-1--1-1-----------------|

Verse
G|--------------------------------------------------------------------------------|
D|----------------------------------/12-12-12-10-10-10-10-10---------10-----------|
A|-----------------------------------------------------------7-7-7-7------10------|
E|---5-5-5-5-5-5-5-5-3-3-3-3-3-3-3-3----------------------------------------------|

G|------------------------------------------------------------------------------|
D|----------------------------------/12-12-12-10-10-10-10-10--------------------|
A|-----------------------------------------------------------7-7-7-7-7-7-7-7----|
E|---5-5-5-5-5-5-5-5-3-3-3-3-3-3-3-3--------------------------------------------|

G|------------------------------------------------------------------------------|
D|---12-12-12-12-12-12-12-12----------------------------------------------------|
A|-------------------------------------------3-3-3-3-2-2-2-2--------------------|
E|---------------------------3-3-3-3-3-3-3-3-----------------5-5-5-5-3-3-3-3----|

G|--------------------------------------------|
D|---12-12-12-10-10-10-10-10------------------|
A|---------------------------7-7-7-7-7--------|
E|--------------------------------------------|

Chorus
G|-------------------------------------------------------------|
D|o-----------------------------------------------------------o|
A|o----------------3--3-3----------------------3--3-5-7--7----o|
E|---5--5-5-1--1-1--------3--3-3-5--5-5-1--1-1-----------------|

Bridge
G|------------------------------------------------------------------------------|
D|------------------------------------------------------------------------------|
A|---5-5-5-5-5-5-5-5-----------------3-3-3-3-2-2-2-2----------------------------|
E|-------------------3-3-3-3-3-3-3-3-----------------5-5-5-5-3-3-3-3------------|

G|--------------------------------------|
D|--------------------------------------|
A|--------------------------------------|
E|---1-1-1-1-1-1-1-1-0-0-0-0-0-0-0-0----|

Guitar Solo
G|--------------------------------------------------------------------------------|
D|----------------------------------/12-12-12-10-10-10-10-10---------10-----------|
A|-----------------------------------------------------------7-7-7-7------10------|
E|---5-5-5-5-5-5-5-5-3-3-3-3-3-3-3-3----------------------------------------------|

G|----------------------------------------------------------------------------------------------|
D|----------------------------------/12-12-12-10-10-10-10-10------------------------------------|
A|-----------------------------------------------------------7-7-7-7-7-7-7-7-7-7-7-7-7-5--------|
E|---5-5-5-5-5-5-5-5-3-3-3-3-3-3-3-3-----------------------------------------------------8-7----|

Verse
G|-----------------------------------------------------------------------|
D|-----------------------------------------------------------------------|
A|-----------------------------------5-5-5-5-5-5-5-5-7-7-7-7-7-7-7-7-----|
E|---5-5-5-5-5-5-5-5-3-3-3-3-3-3-3-3-------------------------------------|

G|------------------------------------------------------------------------------|
D|----------------------------------/12-12-12-10-10-10-10-10--------------------|
A|-----------------------------------------------------------7-7-7-7-7-7-7-7----|
E|---5-5-5-5-5-5-5-5-3-3-3-3-3-3-3-3--------------------------------------------|

G|------------------------------------------------------------------------------|
D|---12-12-12-12-12-12-12-12----------------------------------------------------|
A|-------------------------------------------3-3-3-3-2-2-2-2--------------------|
E|---------------------------3-3-3-3-3-3-3-3-----------------5-5-5-5-3-3-3-3----|

G|--------------------------------------------|
D|---12-12-12-10-10-10-10-10------------------|
A|---------------------------7-7-7-7-7--------|
E|--------------------------------------------|

Chorus/Outro                                          Repeat x4
G|-------------------------------------------------------------|------------|
D|o-----------------------------------------------------------o|------------|
A|o----------------3--3-3----------------------3--3-5-7--7----o|--7-7-------|
E|---5--5-5-1--1-1--------3--3-3-5--5-5-1--1-1-----------------|------------|


Suggest correction
comments
print report bad tab
guest
You may want to rate the tab now too:
select rating
Wanna post a correction for this tab? Suggest correction