Oops, an error
Loading. Please wait.

Troubled Times Tab

3,520 views 180 this week
no commentswrite comment
1 2 3 4 5
x 5
add to favorites
launch autoscroll
font size
0
reset
how to read this tab
guitar tuner
Autoscroll
slow
fast
+/-
esc
set tempo
stop
Help us to improve Ultimate-Guitar.com Take our survey!
×
Author
Difficulty
novice
-------------------------------------------------------------------------------
                       Troubled Times - Green Day
-------------------------------------------------------------------------------
Tabbed by: Chris Esp
E-mail: greekgamer17@yahoo.gr

Tuning: Standard E (EADGBE)

[Verse 1]
e|----------------------------------------------------------------------------|
B|----------------------------------------------------------------------------|
G|----------------------------------------------------------------------------|
D|----------------------------------------------------------------------------|  x2
A|----------------------------------5-5-5-3-3-3-3-3-7-7-7-7-7-7-7-7-----------|
E|--5-5-5-5-5-5-5-5-3-3-3-3-3-3-3-3-------------------------------------------|


e|-------------------------------------------------------------------------------------------|
B|-------------------------------------------------------------------------------------------|
G|-------------------------------------------------------------------------------------------|
D|-------------------------------------------------------------------------------------------|
A|--8-8-8-8-8-8-8-8-----------------3-3-3-3-2-2-2-2-3-3-3-3-3-3-3-3-5-5-5-3-3-3-3-7-7-7-7-7--|
E|------------------3-3-3-3-3-3-3-3----------------------------------------------------------|

[Chorus 1]
e|-------------------------------------------------------------|
B|-------------------------------------------------------------|
G|------------------5--5-5--------------------------5--5-7--9--|
D|--7--7-7--3--3-3--5--5-5--5--5-5--7--7-7--3--3-3--5--5-7--9--|  x2
A|--7--7-7--3--3-3--3--3-3--5--5-5--7--7-7--3--3-3--3--3-5--7--|
E|--5--5-5--1--1-1----------3--3-3--5--5-5--1--1-1-------------|

[Verse 2]
e|----------------------------------------------------------------------------|
B|----------------------------------------------------------------------------|
G|----------------------------------------------------------------------------|
D|----------------------------------------------------------------------------|  x2
A|----------------------------------5-5-5-3-3-3-3-3-7-7-7-7-7-7-7-7-----------|
E|--5-5-5-5-5-5-5-5-3-3-3-3-3-3-3-3-------------------------------------------|


e|-------------------------------------------------------------------------------------------|
B|-------------------------------------------------------------------------------------------|
G|-------------------------------------------------------------------------------------------|
D|-------------------------------------------------------------------------------------------|
A|--8-8-8-8-8-8-8-8-----------------3-3-3-3-2-2-2-2-3-3-3-3-3-3-3-3-5-5-5-3-3-3-3-7-7-7-7-7--|
E|------------------3-3-3-3-3-3-3-3----------------------------------------------------------|

[Chorus 2]
e|-------------------------------------------------------------|
B|-------------------------------------------------------------|
G|------------------5--5-5--------------------------5--5-7--9--|
D|--7--7-7--3--3-3--5--5-5--5--5-5--7--7-7--3--3-3--5--5-7--9--|  x2
A|--7--7-7--3--3-3--3--3-3--5--5-5--7--7-7--3--3-3--3--3-5--7--|
E|--5--5-5--1--1-1----------3--3-3--5--5-5--1--1-1-------------|

[Bridge]
e|-------------------------------------------------------------------------------------------------|
B|-------------------------------------------------------------------------------------------------|
G|--7-7-7-7-7-7-7-----------------5-5-5-5-4-4-4-4-2-2-2-2------------------------------------------|
D|--7-7-7-7-7-7-7-5-5-5-5-5-5-5-5-5-5-5-5-4-4-4-4-2-2-2-2-5-5-5-5-3-3-3-3-3-3-3-3-2-2-2-2-2-2-2-2--|
A|--5-5-5-5-5-5-5-5-5-5-5-5-5-5-5-3-3-3-3-2-2-2-2-0-0-0-0-5-5-5-5-3-3-3-3-3-3-3-3-2-2-2-2-2-2-2-2--|
E|----------------3-3-3-3-3-3-3-3-------------------------3-3-3-3-1-1-1-1-1-1-1-1-0-0-0-0-0-0-0-0--|

[Solo]
Guitar 1:
e|-----------------------------------------------------------------|
B|-----------------------------------------------------------------|
G|-----------------------------------------------------------5-----|
D|--7-7-7-7-7-7-7-7-5-5-5-5-5-5-5-5-3-3-3-3-3-3-3-3-2-2-2-2--5--5--|
A|--7-7-7-7-7-7-7-7-5-5-5-5-5-5-5-5-3-3-3-3-3-3-3-3-2-2-2-2--3--5--|
E|--5-5-5-5-5-5-5-5-3-3-3-3-3-3-3-3-1-1-1-1-1-1-1-1-0-0-0-0-----3--|

e|-----------------------------------------------------------------------------------|
B|-----------------------------------------------------------------------------------|
G|-----------------------------------------------------------------------------------|
D|--7-7-7-7-7-7-7-7-5-5-5-5-5-5-5-5-3-3-3-3-3-3-3-3-2-2-2-2-2-2-2-2-2-2-2-2-2-2-2-2--|
A|--7-7-7-7-7-7-7-7-5-5-5-5-5-5-5-5-3-3-3-3-3-3-3-3-2-2-2-2-2-2-2-2-2-2-2-2-2-2-2-2--|
E|--5-5-5-5-5-5-5-5-3-3-3-3-3-3-3-3-1-1-1-1-1-1-1-1-0-0-0-0-0-0-0-0-0-0-0-0-0-0-0-0--|

Guitar 2:

e|-----------------------------------------------------------------------------------------------------|
B|-----------------------------------------------------------------------------------------13-12-10-9--|
G|--9\--5--2-4--2-4-5-2---2-1--1-2-4---9\--5--2-4--2-4-5-9---13b14br13-10-13--13b14br13-10-------------|
D|-----------------------------------------------------------------------------------------------------|
A|-----------------------------------------------------------------------------------------------------|
E|-----------------------------------------------------------------------------------------------------|

[Verse 3]
e|----------------------------------------------------------------------------|
B|----------------------------------------------------------------------------|
G|----------------------------------------------------------------------------|
D|----------------------------------------------------------------------------|  x2
A|----------------------------------5-5-5-3-3-3-3-3-7-7-7-7-7-7-7-7-----------|
E|--5-5-5-5-5-5-5-5-3-3-3-3-3-3-3-3-------------------------------------------|

e|-------------------------------------------------------------------------------------------|
B|-------------------------------------------------------------------------------------------|
G|-------------------------------------------------------------------------------------------|
D|-------------------------------------------------------------------------------------------|
A|--8-8-8-8-8-8-8-8-----------------3-3-3-3-2-2-2-2-3-3-3-3-3-3-3-3-5-5-5-3-3-3-3-7-7-7-7-7--|
E|------------------3-3-3-3-3-3-3-3----------------------------------------------------------|

[Chorus 3]
e|-------------------------------------------------------------|
B|-------------------------------------------------------------|
G|------------------5--5-5--------------------------5--5-7--9--|
D|--7--7-7--3--3-3--5--5-5--5--5-5--7--7-7--3--3-3--5--5-7--9--|  x2
A|--7--7-7--3--3-3--3--3-3--5--5-5--7--7-7--3--3-3--3--3-5--7--|
E|--5--5-5--1--1-1----------3--3-3--5--5-5--1--1-1-------------|

[Outro]
Guitar 1:
e|-------------------------------------------------------------|           |-------|
B|-------------------------------------------------------------|           |-------|
G|------------------5--5-5--------------------------5--5-7--9--|           |--9-9--|
D|--7--7-7--3--3-3--5--5-5--5--5-5--7--7-7--3--3-3--5--5-7--9--|  x2  then |--9-9--|
A|--7--7-7--3--3-3--3--3-3--5--5-5--7--7-7--3--3-3--3--3-5--7--|           |--7-7--|
E|--5--5-5--1--1-1----------3--3-3--5--5-5--1--1-1-------------|           |-------|


e|-----------------------------------------------------------------|
B|--10------------------------------13----------------------17-----|
G|--13b14---------------------------16b17-------------------20b21--|
D|-----------------------------------------------------------------|  x2
A|-----------------------------------------------------------------|
E|-----------------------------------------------------------------|

************************************

| b   Bend
| br  Bend release
| \   Slide down 

************************************
Suggest correction
comments
print report bad tab
guest
You may want to rate the tab now too:
select rating
Wanna post a correction for this tab? Suggest correction