Oops, an error
Loading. Please wait.

Troublemaker Tab

version 2
version 2

Whole song

Interactive

2,025 views 1 this week
2 commentsread comments
1 2 3 4 5
2 more votes to show rating
add to favorites
launch autoscroll
font size
0
reset
how to read this tab
guitar tuner
Autoscroll
slow
fast
+/-
esc
set tempo
stop
Help us to improve Ultimate-Guitar.com Take our survey!
×
Author
Artist: Green Day
Album: UNO
Song: Troublemaker
Track: 8
Year: 2012
Tuning: standard (EADGBe)
 
its actually a pretty easy song      

Intro                             Repeat x2
e|--XX-X--X-XX-X--X-XX-X--X-XX-X--|
B|--XX-X--X-XX-X--X-XX-X--X-XX-X--|
G|--XX-X--X-XX-X--X-XX-X--X-XX-X--|
D|--XX-X--X-XX-X--X-XX-X--X-XX-X--|
A|--XX-X--X-XX-X--X-XX-X--X-XX-X--|
E|--XX-X--X-XX-X--X-XX-X--X-XX-X--|

Verse                         Repeat many times til chorus
e|---------------------------|
B|---------------------------|
G|----------88--------8-8----|
D|--6-88--6-88--6-88--8-8-6--|
A|--6-88--6-66--6-88--6-6-6--|
E|--4-66--4-----4-66------4--|

Chorus
e|--------------------------|
B|--------------------------|
G|--------------------------|
D|--6--888-6--888-6--888-6--|
A|--6--888-6--888-6--888-6--|
E|--4--666-4--666-4--666-4--|

Pre Verse
e|-------|
B|-------|
G|-------|
D|--666--|
A|--666--|
E|--444--|

Bridge    repeat x4
e|--------|
B|--------|
G|--------|
D|--6668--|
A|--6668--|
E|--4446--|

Order 
Intro
Verse
Chorus
Pre Verse
Verse
Chorus
Rhythm during solo (same as Verse then after half way same as intro)
Bridge
Verse
Suggest correction
Give kudos to tab author, rate the tab!
1 2 3 4 5
comments
print report bad tab
2 comments total.
0 reply
Burnout267 10 Sep 25, 2012 11:09 PM

This tab is very wrong....It's definitely more than a two chord song if actually listen to it.

E|----------------------------
B|----------------------------
G|------------8-9-9---------7-
D|-7-7-8-9-9--8-9-9--6-7-7--7-
A|-7-7-8-9-9--6-7-7--6-7-7--5-
E|-5-5-6-7-7---------4-5-5----

0 reply
stanleylark 30 Sep 26, 2012 01:48 AM

yeah this is my first tab but it works well and is good for noobs like me

guest
You may want to rate the tab now too:
select rating
Wanna post a correction for this tab? Suggest correction