Oops, an error
Loading. Please wait.
We have an official Viva La Gloria tab made by UG professional guitarists. Check out the tab »
×
241 views 18 this week
no commentswrite comment
1 2 3 4 5
2 more votes to show rating
add to favorites
×
Save as Personal and add changes to this tab that will be seen only by you. Learn more ›
×
You can save this tab as Personal to edit and correct it or add notes. All changes will be seen only by you. Learn more »
launch autoscroll
font size
0
reset
how to read this tab
guitar tuner
backing track
0:00
0:00
edit
Autoscroll
slow
fast
+/-
esc
set tempo
stop
Author
Viva La Gloria - Green Day (Intro)

I can barely hear the notes in the 3rd verse ("say your prayers and
light a fire...what we're waiting for") so the notes there are
a bit of guessing. Sorry about that.

   E            G#m                    A      E
e|----0-------------------4---------4---------------------0----------------|
B|-0---------0--------4--------(4)--4------2---------0----------0----------|
G|-1----------------4-----------4--------2--------1-(1)-------1-1----------|
D|-2-------2------6-----------6--------2--------2-------2---2--------------|
A|-2-----2------6-------6---6-----------------2----------------------------|
E|-0-----------------------------------------------------------------------|

      E         G#m                    A      E
e|----0-------------------4---------4---------------------0----------------|
B|-----------0--------4--------(4)--4------2---------0----------0----------|
G|------------------4-----------4--------2--------1-(1)-------1-1----------|
D|---------2------6-----------6--------2--------2-------2---2--------------|
A|-------2------6-------6---6-----------------2----------------------------|
E|-------------------------------------------------------------------------|
    Hey Gloria, are you standing close to the edge?
        
        
      E         G#m                    A      B
e|----0-------------------4---------4---------------------2----------------|
B|-----------0--------4--------(4)--4------2------0--4----------0----------|
G|------------------4-----------4--------2----------(4)-------4-1----------|
D|---------2------6-----------6--------2--------4-------4---4--------------|
A|-------2------6-------6---6-----------------2----------------------------|
E|-------------------------------------------------------------------------|
    Lookout to the setting sun, the brink of your vision


      E         G#m                    A      E
e|----0-------------------4---------4---------------------0----------------|
B|-----------0--------4--------(4)--4------2---------0----------0----------|
G|------------------4-----------4--------2--------1-(1)-------1-1----------|
D|---------2------6-----------6--------2--------2-------2---2--------------|
A|-------2------6-------6---6-----------------2----------------------------|
E|-------------------------------------------------------------------------|
    Eternal youth is a landscape of the lie

        
      E         G#m                    A      B
e|----0-------------------4---------4---------------------2----------------|
B|-----------0--------4--------(4)--4------2------0--4----------2----------|
G|------------------4-----------4--------2----------(4)-------4-3----------|
D|---------2------6-----------6--------2--------4-------4---4--------------|
A|-------2------6-------6---6-----------------2----------------------------|
E|-------------------------------------------------------------------------|
    The cracks of my skin can prove, as the years will testify

   C#m          G#m          A          E         B/Eb
e|---------1------------4------------0-------------------------------------|
B|----2---2--------4---4--------2---2---------0---------4------------------|
G|---3---3--------4---4--------2---2------1---------4----------------------|
D|--3---3--------6---6--------2---2---------2---------4--------------------|
A|-1------------6------------0----------2---------6------------------------|
E|-------------------------------------------------------------------------|
    Say your prayers and light a fire we're gonna start a war


   C#m          G#m          A             B
e|---------1------------4------------0-------------------------------------|
B|----2---2--------4---4--------2---2------4-------------------------------|
G|---3---3--------4---6--------2---2-------4-------------------------------|
D|--3---3--------6---6--------2---2--------4-------------------------------|
A|-1------------6------------0---------------------------------------------|
E|-------------------------------------------------------------------------|
    Your slogan's a gun for hire, it's what we waited for


   E            G#m                    A      E
e|----0-------------------4---------4---------------------0----------------|
B|-0---------0--------4--------(4)--4------2---------0----------0----------|
G|-1----------------4-----------4--------2--------1-(1)-------1-1----------|
D|-2-------2------6-----------6--------2--------2-------2---2--------------|
A|-2-----2------6-------6---6-----------------2----------------------------|
E|-0-----------------------------------------------------------------------|
    Hey Gloria, this is why we're on the edge


      E         G#m                    A      E
e|----0-------------------4---------4-------------------0--3----8-----12---|
B|-----------0--------4--------(4)--4------2---------0---------------------|
G|------------------4-----------4--------2--------1------------------------|
D|---------2------6-----------6--------2--------2--------------------------|
A|-------2------6-------6---6-----------------2----------------------------|
E|-------------------------------------------------------------------------|
    The fight of our lives been drawn to this undying love

            
            
Suggest correction
Creating personal tab
Creating personal tab
You can edit any tab online and save it as your Personal.

You can edit, replace or remove any tab part or add personal notes – all changes will be seen only by you.

Personal tabs can be accessed anytime from any device, even offline.
Learn more »
Give kudos to tab author, rate the tab!
1 2 3 4 5
comments
print report bad tab
guest
You may want to rate the tab now too:
select rating
Wanna post a correction for this tab? Suggest correction