Oops, an error
Loading. Please wait.

Viva La Gloria Little Girl Chords

version 3
version 3

Whole song

Interactive

45,567 views 75 this week
5 commentsread comments
1 2 3 4 5
excellent!
x 21
add to favorites
launch autoscroll
font size
0
reset
transpose
0
reset
simplify chords
- display chords -
guitar tuner
Tab Pro tools
  • play this tab
  • loop segment
  • change instrument
  • show fretboard
  • metronome
Autoscroll
slow
fast
+/-
esc
set tempo
stop
Contributor
Greenday
Little Girl
21st Century Breakdown
2009 Reprise Records
Submitted by: paramore_fans@yahoo.com

Key: G#

Tuning: Standard EADGBe

Chords used:
Fm -   133111
C# -   x46664
Eb -   x68886
G# -   466544
Bb/D - x587xx
C/E -  032xxx
F# -   244322
B -    x24442
Bbm -  x13321
G -    320033
C -    x32010
Bb -   x13331
Dm -   xx0231


Intro:

Piano:
         Fm                 Eb                Bb/D        
 C/E
e|---------8-------|----------8-------|----------8-------|-6-|---|
B|-9-----9----11-9-|--9-----9----11-9-|--9-----9----11-9-|---|-8-|
G|----10-----------|-----10-----------|-----10-----------|---|---|
D|-----------------|------------------|------------------|---|---|
A|-8---------------|------------------|------------------|-6-|-7-|
E|-----------------|-11---------------|-10---------------|---|---|

         Fm                 Eb                Bb/D        Eb
e|---------8-------|----------8-------|----------8-------|-6-|
B|-9-----9----11-9-|--9-----9----11-9-|--9-----9----11-9-|---|
G|----10-----------|-----10-----------|-----10-----------|---|
D|-----------------|------------------|------------------|---|
A|-8---------------|------------------|------------------|-6-|
E|-----------------|-11---------------|-10---------------|---|

   C   Bbm  G#  G                 Fm
e|---|----|---|---|---------------------------------|
B|---|----|---|---|---------------------------------|
G|---|----|---|---|---1---1---1---1---1---1---1---1-|
D|---|----|---|---|---------------------------------|
A|-3-|-1--|---|---|---------------------------------|
E|---|----|-4-|-3-|-1---1---1---1---1---1---1---1---|


Verse 1:
       Fm
Little girl little girl
            C#
Why are you crying?
  C
Inside your restless
C    Bbm  G#    G  Fm
soul your heart is dying
Little one, little one
             C#
Your soul is purging
   C              C
Of love and razor blades
Bbm  G#    G  Fm
Your blood is surging


Chorus 1:
    Fm
Runaway
         C#    G#      C#   G#
From the river to the street
    C        G
And find yourself with
C    Bbm  G# G   Fm
your face in the gutter
        Fm           C#        G# C# G#
Your a stray for the salvation ar-my
      C
There is no place like home
         C   Bbm G#    G  Fm-- x2
When you got no  place to go


Verse 2:
       Fm
Little girl, little girl
             C#
Your life is calling
    C
The charlatans and
C      Bbm G#   G Fm
saints of  your a-bandon
       Fm
Little one little one
           C#
The sky is falling
    C
The lifeboat of
  C  Bbm  G# G   Fm
deception is now sailing
       Fm
In the wake all the way
            C#
No rhyme or reason
     C
Your bloodshot eyes
     C    Bbm
Will show your
G#    G  Fm
heart of treason
       Fm
Little girl little girl
          C#
You dirty liar
       C
You're just a junkie
C   Bbm   G# G   Fm
Preaching to the choir


(Repeat Chorus 1)


Bridge:
    C#
The traces of blood
       G#
Always follow you home
         C#
Like the Mascara tears
          G#
From your getaway
     C#
Your walking with blisters
    G#
And running with shears
     C
So unholy Sister of grace


Guitar Solo: Fm--Eb--Dm-Bbm-Eb-C x4

Guitar 2:
        Fm               Eb          Dm      Bbm     
Eb      C
e|---------------|---------8------|------|---------|------|-------|
B|-----8-9--8----|-----8-9---8----|----8-|-9--8----|------|-----8-|
G|--10--------10-|--10---------10-|-10---|------10-|-8--8-|-------|
D|---------------|----------------|------|---------|------|-10----|
A|---------------|----------------|------|---------|------|-------|
E|---------------|----------------|------|---------|------|-------|

         Fm                 Eb          Dm      Bbm  
   Eb      C
e|------------------|---------8------|------|---------|------|-------|
B|--------8-9--8----|-----8-9---8----|----8-|-9--8----|------|-----8-|
G|-10--10--------10-|--10---------10-|-10---|------10-|-8--8-|-------|
D|------------------|----------------|------|---------|------|-10----| x2
A|------------------|----------------|------|---------|------|-------|
E|------------------|----------------|------|---------|------|-------|

         Fm                 Eb          Dm      Bbm  
   Eb      C      Fm(Chorus)
e|------------------|---------8------|------|---------|-8--8-|-12--12-|-13-|
B|--------8-9--8----|-----8-9---8----|----8-|-9--8----|------|--------|----|
G|-10--10--------10-|--10---------10-|-10---|------10-|------|--------|----|
D|------------------|----------------|------|---------|------|--------|----|
A|------------------|----------------|------|---------|------|--------|----|
E|------------------|----------------|------|---------|------|--------|----|


Chorus 2:
    Fm
Runaway
         C#    G#      C#   G#
From the river to the street
    C        G
And find yourself with
C    Bbm  G# G   Fm
your face in the gutter
        Fm           C#        G# C# G#
Your a stray for the salvation ar-my
      C                    C Bbm G# G
There is no place like home
comments
print report bad tab
5 comments total. Showing first comments.
0 reply
ga_thrawn wrote on June 13 2009, 12:44 am

Nice tab! I would only replace the Cm by a C

+1 reply
sam118118 wrote on August 30 2009, 06:44 am

i find it well hard i feel like im rubbish at guitar

+2 reply
Saroz wrote on September 7 2010, 05:24 am

can u even play that thing...............

I want to post or [tab]
guest
You may want to rate the tab now too:
select rating
Please do not post tabs as comments. Select "correction" instead!