Oops, an error
Loading. Please wait.

Viva La Gloria Little Girl Tab

version 3
version 3

Interactive

1,749 views 3 this week
2 commentsread comments
1 2 3 4 5
not so good
x 3
add to favorites
launch autoscroll
font size
0
reset
how to read this tab
guitar tuner
Tab Pro tools
  • play this tab
  • loop segment
  • change instrument
  • show fretboard
  • metronome
Autoscroll
slow
fast
+/-
esc
set tempo
stop
Contributor
¿Viva La Gloria? [Little Girl] - Green Day
E-mail: UnAverageKid2@aim.com

~ = vibrato
/ = slide up
b = bend

Intro (Piano)

e|------------------------|---------------------|
B|--------13--13--13--13--|-----13–-13-–13–-13–-|
G|10--1013--13--13--12--10|8-810--13–-13--12--10|
D|--10--------------------|-8-------------------|
A|8-----------------------|6--------------------|
E|------------------------|---------------------|
(continued)                                                             
e|---------------------|----------|
B|-----13–-13--13--13–-|----------|
G|6-610--13--13--12--10|5–-59–---9|
D|-6-------------------|-6---10—–-|
A|4--------------------|--6----10-|
E|---------------------|4—–-8-----|
(continued)
e|------------------------|---------------------|
B|--------13--13--13--13--|-----13–-13-–13–-13–-|
G|10--1013--13--13--12--10|8-810--13–-13--12--10|
D|--10--------------------|-8-------------------|
A|8-----------------------|6--------------------|
E|------------------------|---------------------|
(continued)
e|--------------------|3~----------|
B|----13–-13--13--13–-|5~----------|
G|6-68--13--13--12--10|5~----------|
D|-6------------------|5~----------|
A|4-------------------|3~------3—–-|
E|--------------------|---------643|

Verse 1 (Piano)

e|------------------------|------------------------|----------------|
B|------------------------|------------------------|----------------|
G|-10-10-10-10-10-10-10-10|-10-10-10-10-10-10-10-10|-6-6-6-6-5-5----|
D|-10-10-10-10-10-10-10-10|-10-10-10-10-10-10-10-10|-6-6-6-6-5-5----|
A|8–----8-----8-----8-----|8–----8-----8-----8-----|4—–-4—–-3——-3—–-|
E|—–-8-----8-----8-----8--|—–-8-----8-----8-----8--|--4—–-4—–-3—–643|
(continued)
e|------------------------|------------------------|----------------|
B|------------------------|------------------------|----------------|
G|-10-10-10-10-10-10-10-10|-10-10-10-10-10-10-10-10|-6-6-6-6-5-5----|
D|-10-10-10-10-10-10-10-10|-10-10-10-10-10-10-10-10|-6-6-6-6-5-5----|
A|8–----8-----8-----8-----|8–----8-----8-----8-----|4—–-4—–-3——-3—–-|
E|—–-8-----8-----8-----8--|—–-8-----8-----8-----8--|--4—–-4—–-3—–643|
(continued)
e|----------|
B|----------|
G|-10--10---| 
D|-10--10---|
A|8–--8-8---|
E|—–-8--8---|

Chorus

Guitar 1
e|----------------|----------------|
B|----------------|----------------|
G|--------66–-66–-|55--------------|
D|3333333366666666|5555----33333333|
A|3333333344664466|33553—––33333333|
E|11111111--44--44|–-33–64311111111|
(continued)
e|----------------|----------------|
B|----------------|----------------|
G|--------66–-66–-|555555555555----|
D|3333333366666666|555555555555----|
A|3333333344664466|3333333333333—–-|
E|11111111--44--44|–------------643|

Verse 2

Guitar 1 (if you have a whammy bar, abuse it)
e|-8~--------------|-------------------|15~------8~------|
B|-9~--------------|-------------------|17~------9~------|
G|10~--------------|–1010--10---6-6--66|17~-----10~------|
D|10~--------------|–1010--10---6-6--66|17~-----10~------|
A|-8~--------------|--8-8—–-8—–-4-4--44|15~------8~------|
E|-----------------|-------------------|-----------------|
(continued)
e|-8~------16~------|15~-------8~------|
B|-9~------18~------|17--------9~------|
G|10~------18~------|17~------10~------|
D|10~------18~------|17~------10~------|
A|-8~------16~------|15~-------8~------|
E|------------------|------------------|
(continued)
e|--------4~-------|3~------1~------|
B|--------6~-------|5~–-53–-1~------|
G|--------6~-------|5~----651~------|
D|--------6~-------|5~------3~------|
A|-323-3234~-------|3~------3~------|
E|1—–-1——----------|--------1~------|
(continued)
e|-------------------|15~----------------|
B|-------------------|17~----------------|
G|–1010--10---6-6--66|17~-----------13~--|
D|–1010--10---6-6--66|17~--------10~-----|
A|--8-8—–-8—–-4-4--44|15~------8~--------|
E|-------------------|-------------------|

Guitar 2
e|--8--8--8--8--8--8--8--8|–-8-8–--8–--4-4--44|-3-3-3-3--8--8--8--8|
B|–-9--9--9--9--9--9--9--9|--9-9---9---6-6--66|-5-5-5-5--9--9--9--9|
G|-10-10-10-10-10-10-10-10|–1010--10---6-6--66|-5-5-5-5-10-10-10-10|
D|------------------------|-------------------|--------------------|
A|------------------------|-------------------|--------------------|
E|------------------------|-------------------|--------------------|
(continued)
e|--8--8--8--8-4-4-4-4|-3-3-3-3--8--8--8--8|
B|–-9--9--9--9-6-6-6-6|-5-5-5-5--9--9--9--9|
G|-10-10-10-10-6-6-6-6|-5-5-5-5-10-10-10-10|
D|--------------------|--------------------|x2
A|--------------------|--------------------|
E|--------------------|--------------------|
(continued)
e|–-8-8–--8–--4-4--44|-3-3-3-3--8--8------|
B|--9-9---9---6-6--66|-5-5-5-5--9--9------|
G|–1010--10---6-6--66|-5-5-5-5-10-10------|
D|-------------------|--------------------|
A|-------------------|--------------------|
E|-------------------|--------------------|

Chorus

Guitar 1
e|----------------|----------------|
B|----------------|----------------|
G|--------66–-66–-|55--------------|
D|3333333366666666|5555----33333333|
A|3333333344664466|33553-––33333333|
E|11111111--44--44|–-33–64311111111|
(continued)
e|----------------|----------------|
B|----------------|----------------|
G|--------66–-66–-|555555555555----|
D|3333333366666666|555555555555----|
A|3333333344664466|3333333333333—–-|
E|11111111--44--44|–------------643|
(continued)
e|----------------|
B|----------------|
G|----------------|
D|3333333333333333|
A|3333333333333333|
E|1111111111111111|


Guitar 2
e|--8--8--8--8-4-4-4-4|-3-3------8--8--8--8|
B|–-9--9--9--9-6-6-6-6|-5-5------9--9--9--9|
G|-10-10-10-10-6-6-6-6|-5-5-----10-10-10-10|
D|--------------------|--------------------|
A|--------------------|--------------------|
E|--------------------|--------------------|
(continued)
e|--8--8--8--8-4-4-4-4|-3-3-3-3-3-3-3-|
B|–-9--9--9--9-6-6-6-6|-5-5-5-5-5-5-5-|
G|-10-10-10-10-6-6-6-6|-5-5-5-5-5-5-5-|
D|--------------------|---------------|
A|--------------------|---------------|
E|--------------------|---------------|
(continued)
e|--------------------------------|
B|--------------------------------|
G|10101010101010101010101010101010|
D| x x x x x x x x x x x x x x x x|
A| 8 8 8 8 8 8 8 8 8 8 8 8 8 8 8 8|
E|--------------------------------|

Bridge

e|----------------|
B|----------------|
G|66666666--------|
D|6666666666666666|x3
A|4444444466666666|
E|--------44444444|
(continued)
e|----------------|
B|----------------|
G|5555555555555555|
D|5555555555555555|
A|3333333333333333|
E|----------------|

Solo

Guitar 1
e|------------------------|----------------|
B|------------------------|----------------|
G|101010101010101088888888|--------33335555|
D|101010101010101088888888|6666333333335555|x4
A|-8-8-8-8-8-8-8-866666666|6666333311113333|
E|------------------------|44441111--------|

Guitar 2
e|----------------------------|------------------------|
B|-------------------13-------|------------------------|
G|10~101213~1210~1213–-131210~|10~101213~1210~8~88-----|
D|----------------------------|-------------------10/17|x3
A|----------------------------|------------------------|
E|----------------------------|------------------------|
(continued)
e|----------------------------|------------------------------------|
B|-------------------13-------|------------------13---13----16---16|
G|10~101213~1210~1213–-131210~|10~101213~1210~15b1715b17-18b2018b20|
D|----------------------------|------------------------------------|
A|----------------------------|------------------------------------|
E|----------------------------|------------------------------------|

Chorus

Guitar 1
e|------------------------|------------------------|
B|------------------------|------------------------|
G|101010101010101066–-66–-|55------1010101010101010|
D|101010101010101066666666|5555----1010101010101010|
A|-8-8-8-8-8-8-8-844664466|33553—––-8-8-8-8-8-8-8-8|
E|----------------–-44--44|–-33–643----------------|
(continued)
e|------------------------|----------------|----------------|
B|------------------------|----------------|----------------|
G|101010101010101066–-66–-|555555555555----|----------------|
D|101010101010101066666666|555555555555----|3---------------|
A|-8-8-8-8-8-8-8-844664466|3333333333333—–-|3---------------|
E|----------------–-44--44|–------------643|1---------------|

Guitar 2
e|--------------------|
B|–--18~--------------|
G|20b22~--------------|
D|--------------------|
A|--------------------|
E|--------------------|
comments
We did not receive enough feedback on this tab! Please rate:
print report bad tab
1 2 3 4 5
2 comments total.
0 reply
EpiTelePhone wrote on June 18 2009, 11:55 am

Great Job Man

Five Thumbs up

0 reply
Matt Doreen wrote on June 24 2009, 09:00 pm

Thank you!

I want to post or [tab]
guest
You may want to rate the tab now too:
select rating
Please do not post tabs as comments. Select "correction" instead!