Oops, an error
Loading. Please wait.

Viva La Gloria Little Girl Bass

version 4
version 4

Whole song

Interactive

49 views 1 this week
no commentswrite comment
1 2 3 4 5
1 last vote to show rating
add to favorites
launch autoscroll
font size
0
reset
guitar tuner
×
Best way to learn
"Viva La Gloria Little Girl"
Autoscroll
slow
fast
+/-
esc
set tempo
stop
Author
Difficulty
About this tab version
There is another tab for this song that has almost all the correct notes but some was off so here's the 100% correct version. Was this info helpful? Yes No
Please comment if you think something needs to be changed.
Play it loud!

Just piano for the intro and first verse

[Chorus]

G|----------------|----------------|----------------|----------------|
D|3-3-3-3-3-3-3-3-|----------------|----------------|----------------| 1x
A|----------------|4-4-----4-4-----|3-3-----3-1-----|----------------|
E|----------------|----4-4-----4-4-|----3-3-----4-3-|1-1-1-1-1-1-1-1-|

G|----------------|----------------|----------------|----------------|
D|3-3-3-3-3-3-3-3-|----------------|----------------|----------------| 1x
A|----------------|4-4-----4-4-----|3-3-----3-3-----|3-3-3-3-3-------|
E|----------------|----4-4-----4-4-|----3-3-----3-3-|----------------|

G|----------------|----------------|
D|----------------|----------------| 1x
A|----2-3-----2-3-|----2-3-----2-3-|
E|1-1-----1-1-----|1-1-----1-1-----|

[Verse]

G|----------------|----------------|----------------|----------------|
D|--3-3-----3-----|----------------|----------------|----------------| 1x
A|----------------|--4---4---4-4---|3-3-----3-1-----|----2-3-----2-3-|
E|----------------|----------------|----3-3-----4-3-|1-1-----1-1-----|

G|----------------|----------------|----------------|----------------|
D|3-3-----3-3-----|----------------|----------------|----------------| 2x
A|----3-3-----3-3-|4-4-----4-4-----|3-3-----3-1-----|----2-3-----2-3-|
E|----------------|----4-4-----4-4-|----3-3-----4-3-|1-1-----1-1-----|

G|----------------|----------------|----------------|----------------|
D|--3-3-----3-----|----------------|----------------|----------------| 1x
A|----------------|--4---4---4-4---|3-3-----3-1-----|----2-3---------|
E|----------------|----------------|----3-3-----4-3-|1-1-----1-------|

[Chorus]

G|----------------|----------------|----------------|----------------|
D|3-3-3-3-3-3-3-3-|----------------|----------------|----------------| 1x
A|----------------|4-4-----4-4-----|3-3-----3-1-----|----------------|
E|----------------|----4-4-----4-4-|----3-3-----4-3-|1-1-1-1-1-1-1-1-|

G|----------------|----------------|----------------|----------------|
D|3-3-3-3-3-3-3-3-|----------------|----------------|----------------| 1x
A|----------------|4-4-----4-4-----|3-3-----3-3-----|3-3-3-3-3-1-----|
E|----------------|----4-4-----4-4-|----3-3-----3-3-|------------4-3-|

G|----------------|----------------|
D|----------------|----------------| 1x
A|----2-3-----2-3-|----2-3-----2-3-|
E|1-1-----1-1-----|1-1-----1-1-----|

[Bridge]

G|----------------|----------------|
D|----------------|----------------| 3x
A|4-4-4-4-4-4-4-4-|----------------|
E|----------------|4-4-4-4-4-4-4-4-|

G|----------------|----------------|
D|----------------|----------------| 1x
A|3-3-3-3-3-3-3-3-|3-3-3-3-3-3-3-3-|
E|----------------|----------------|

[Solo]

G|----------------|----------------|----------------|----------------|
D|3-3-3-3-3-3-3-3-|1-1-1-1-1-1-1-1-|0-0-0-0---------|1-1-1-1---------| 4x
A|----------------|----------------|--------1-1-1-1-|--------3-3-3-3-|
E|----------------|----------------|----------------|----------------|

[Chorus]

G|----------------|----------------|----------------|----------------|
D|3-3-3-3-3-3-3-3-|----------------|----------------|----------------| 1x
A|----------------|4-4-----4-4-----|3-3-----3-1-----|----------------|
E|----------------|----4-4-----4-4-|----3-3-----4-3-|1-1-1-1-1-1-1-1-|

G|----------------|----------------|----------------|----------------|
D|3-3-3-3-3-3-3-3-|----------------|----------------|----------------| 1x
A|----------------|4-4-----4-4-----|3-3-----3-3-----|3-3-3-3-3-------|
E|----------------|----4-4-----4-4-|----3-3-----3-3-|----------------|
Suggest correction
Give kudos to tab author, rate the tab!
1 2 3 4 5
comments
print report bad tab
guest
You may want to rate the tab now too:
select rating
Wanna post a correction for this tab? Suggest correction