Oops, an error
Loading. Please wait.

Viva La Gloria Little Girl Tab

version 6
version 6

Interactive

12,077 views 12 this week
no commentswrite comment
1 2 3 4 5
excellent!
x 5
add to favorites
launch autoscroll
font size
0
reset
how to read this tab
guitar tuner
Autoscroll
slow
fast
+/-
esc
set tempo
stop
Help us to improve Ultimate-Guitar.com Take our survey!
×
Author
-------------------------------------------------------------------------------
                  Viva La Gloria (Little Girl) - Green Day
-------------------------------------------------------------------------------

Tabbed by: UponTheShores
Email    : UponTheShores@hotmail.co.uk

Tuning: Standard 

Intro: Piano (This Is Part Of Restless Heart Syndrome, With A Twist)


e|----------------|
B|----------------|
G|----------------|
D|----------------|
A|----3-1---------|
E|--------4-3-----|

e|----------------------------------------------------|
B|-------9----9----9----9----9----9----9----9---------|
G|-------10---10---10---10---10---10---10---10--------| 
D|-------10---10---10---10---10---10---10---10--------|
A|-----8---------8---------8---------8----------------|
E|----------8---------8---------8---------8-----------|

Verse one: (Little girl,little girl why are you crying)

  (Piano)
e|---------------------------------------------------------------------------|
B|-----9----9----9----9------------------------------------9----9----9----9--|
G|-----10---10---10---10---6---6---6---6---5---5---5---5---10---10---10---10-| 
D|-----10---10---10---10---6---6---6---6---5---5---5---5---10---10---10---10-|
A|---8---------8---------4-------4-------3-------3-------8---------8---------|
E|--------8---------8--------4-------4-------3-------3--------8---------8----|

e|---------------------------------------------------------------------------|
B|-----9----9----9----9------------------------------------9----9----9----9--|
G|-----10---10---10---10---6---6---6---6---5---5---5---5---10---10---10---10-| 
D|-----10---10---10---10---6---6---6---6---5---5---5---5---10---10---10---10-|
A|---8---------8---------4-------4-------3-------3-------8---------8---------|
E|--------8---------8--------4-------4-------3-------3--------8---------8----|


Chorus: (Run Away)

  (Guitar one)
e|-----------------------------------------------------------------|
B|----9-9-9-9-9-9-9-9----------------------------33333333----------|
G|----1010101010101010--66666666--5555-----------33333333----------|
D|----1010101010101010--66666666--5555-----------33333333----------|
A|----8-8-8-8-8-8-8-8---44xx44xx--33xx--3-1------33333333----------|
E|------------------------44--44----33------4-3--11111111----------|

  (Guitar two)
e|-----------------------------------------------------------------|
B|-----------------------------------------------33333333----------|
G|----------------------66666666--55555555-------33333333----------|
D|-----33333333---------66666666--55555555-------33333333----------|
A|-----33333333---------44444444--33333333-------33333333----------|
E|-----11111111----------------------------------11111111----------|

  Both Guitars
e|---------------------------------------------------------|
B|----9-9-9-9-9-9-9-9--------------------------------------|
G|----1010101010101010--66666666--5555---------------------|
D|----1010101010101010--66666666--5555---------------------|
A|----8-8-8-8-8-8-8-8---44444444--3333--3-1----------------|
E|------------------------------------------4-3------------|


Interlude one:

  (Guitar one)
e|----------------------------------------------------|
B|-------9----9----9----9----9----9----9----9---------|
G|-------10---10---10---10---10---10---10---10--------| 
D|-------10---10---10---10---10---10---10---10--------|
A|-----8---------8---------8---------8----------------|
E|----------8---------8---------8---------8-----------|


e|----------------------------------------------------|
B|-------9~-------------------------------------------|
G|-------10~------------------------------------------|
D|-------10~------------------------------------------|
A|-------8~-------------------------------------------|
E|----------------------------------------------------|


Verse 2 Pt.1: (Little girl, Little Girl Your Life Is Calling)
Guitar two  : random use of the floyd rose/ tremolo arm one the chords

  (Guitar one)
e|---------------------------------------------------------------------------|
B|-----9---9-----9----------------------------------------9----9----9----9---|
G|-----10--10----10------6---6---6-6-----5---5---5---5---10---10---10---10---| 
D|-----10--10----10------6---6---6-6-----5---5---5---5---10---10---10---10---|
A|-----8---8-----8-------4---4---4-4---3-------3-------8---------8-----------|
E|-----------------------------------------3-------3--------8---------8------|

  (Guitar two)
e|---------------------------------------------------------------------------|
B|------------------------------------------------------9~-------------------|
G|-----------------------6---6---6-6-----5~-------------10~------------------|
D|-----3---3-----3-------6---6---6-6-----5~-------------10~------------------|
A|-----3---3-----3-------4---4---4-4-----3~-------------8~-------------------|
E|-----1---1-----1-----------------------------------------------------------|

  (Guitar one)
e|---------------------------------------------------------------------------|
B|-----9----9----9----9------------------------------------9----9----9----9--|
G|-----10---10---10---10---6---6---6---6---5---5---5---5---10---10---10---10-| 
D|-----10---10---10---10---6---6---6---6---5---5---5---5---10---10---10---10-| 
A|---8---------8---------4-------4-------3-------3-------8---------8---------|
E|--------8---------8--------4-------4-------3-------3--------8---------8----|

  (Guitar two)
e|---------------------------------------------------------------------------|
B|-----9~---------------------------------------------------9~---------------|
G|-----10~-----------------6~--------------5~---------------10~--------------|
D|-----10~-----------------6~--------------5~---------------10~--------------|
A|-----8~------------------4~--------------3~---------------8~---------------|
E|---------------------------------------------------------------------------|

  (Guitar one)
e|---------------------------------------------------------------------------|
B|-----9----9----9----9------------------------------------9----9----9----9--|
G|-----10---10---10---10---6---6---6---6---5---5---5---5---10---10---10---10-| 
D|-----10---10---10---10---6---6---6---6---5---5---5---5---10---10---10---10-|
A|---8---------8---------4-------4-------3-------3-------8---------8---------|
E|--------8---------8--------4-------4-------3-------3--------8---------8----|

  (Guitar two)
e|---------------------------------------------------------------------------|
B|---------------------------------------------------------------------------|
G|---------------------------------------------------------------------------|
D|---------------------------------------------------------------------------|
A|-----2-3~------2-3~----4~--------------3~----11-10-8-3---------------------|
E|---1---------1-----------------------------------------1~------------------|

  (Guitar one)
e|---------------------------------------------------------------------------|
B|-----9---9-----9----------------------------------------9----9----9----9---|
G|-----10--10----10------6---6---6-6-----5---5---5---5---10---10---10---10---| 
D|-----10--10----10------6---6---6-6-----5---5---5---5---10---10---10---10---|
A|-----8---8-----8-------4---4---4-4---3-------3-------8---------8-----------|
E|-----------------------------------------3-------3--------8---------8------|

  (Guitar two)
e|---------------------------------------------------------------------------|
B|------------------------------------------------------9~-------------------|
G|-----------------------6---6---6-6-----5~-------------10~------------------|
D|-----3---3-----3-------6---6---6-6-----5~-------------10~------------------|
A|-----3---3-----3-------4---4---4-4-----3~-------------8~-------------------|
E|-----1---1-----1-----------------------------------------------------------|


Chorus Again


Bridge: (The Traces Of Blood)

  (Both Guitars)
e|---------------------------------------------------------------------------|
B|---------------------------------------------------------------------------|
G|-----66666---------66666---------66666---------5555555555------------------|
D|-----66666--66666--66666--66666--66666--66666--5555555555------------------|
A|-----44444--66666--44444--66666--44444--66666--3333333333------------------|
E|------------44444---------44444---------44444------------------------------|


Solo: (Sister Of Grace)

  (Guitar one)
e|------------------------------------------------------------------|
B|------------------------------------------------------------------|
G|---1010101010101010--88888888--7777--------8888--5555-------------|
D|---1010101010101010--88888888--7777--8888--8888--5555-------------|
A|---9-9-9-9-9-9-9-9---66666666--5555--8888--6666--3333-------------|
E|-------------------------------------6666-------------------------|

  (Guitar 2)
e|--------------------------------------------------------------------------|
B|--------------------------------13----------------------------------------|
G|-------12-13~-12----------12-13----12----------12-13~-12---------------12-|
D|--15--------------15~--15-------------15~--15------------15--13-13--10----|
A|--------------------------------------------------------------------------|
E|--------------------------------------------------------------------------|

e|--------------------------------------------------------------------------|
B|--------------------------------13----------------------------------------|
G|-------12-13~-12----------12-13----12----------12-13~-12---------------12-|
D|-15-15------------15~--15-------------15~--15------------15--13-13--10----|
A|--------------------------------------------------------------------------|
E|--------------------------------------------------------------------------|

e|--------------------------------------------------------------------------|
B|--------------------------------13----------------------------------------|
G|-------12-13~-12----------12-13----12----------12-13~-12---------------12-|
D|-15-15------------15~--15-------------15~--15------------15--13-13--10----|
A|--------------------------------------------------------------------------|
E|--------------------------------------------------------------------------|

e|-----------------------------------------------------------|
B|------------------------------13---------------------------|
G|-----12-13~-12----------12-13----12----------12-13~-12-----|
D|--15------------15~--15-------------15~--15------------15--|
A|-----------------------------------------------------------|
E|-----------------------------------------------------------|

e|-----------------------------------------------------------|
B|-----------------------------------------------------------|
G|--11b(12)/16b(17)-16b(17)--20b(21)-20b(21)-21b(22)~--------|
D|-----------------------------------------------------------|
A|-----------------------------------------------------------|
E|-----------------------------------------------------------|


Chorus Again

Ending: (When You Got No Place To Go)

  (Guitar two)
e|----------------|
B|----------------|
G|----------------|
D|----------------|
A|----3-1---------|
E|--------4-3-----|




| /  slide up
| \  slide down
| h  hammer-on
| p  pull-off
| ~  vibrato
| +  harmonic
| x  Mute note
===============================================================================
Suggest correction
What's this?
You can suggest a correction to this tab. Community and Mods will review your correction and vote to approve or reject it.
comments
print report bad tab
guest
You may want to rate the tab now too:
select rating
Please do not post tabs as comments. Select "correction" instead!