Oops, an error
Loading. Please wait.

Viva La Gloria Little Girl Tab

version 7
version 7

Interactive

6,734 views 12 this week
no commentswrite comment
1 2 3 4 5
please rate
add to favorites
launch autoscroll
font size
0
reset
how to read this tab
guitar tuner
Autoscroll
slow
fast
+/-
esc
set tempo
stop
Help us to improve Ultimate-Guitar.com Take our survey!
×
Author
Difficulty
intermediate
-------------------------------------------------------------------------------
                ¿Viva La Gloria? (Little Girl) - Green Day
-------------------------------------------------------------------------------
Tabbed by: Viva_La_Gloria
Email: thepatient94@hotmail.com

Tuning:Standard

This is my first tab. I'm not sure if all of this is entirely correct, so
please contact me if I need to change anything. Thanks :)

Intro

e|---------------------------------------------------------------------------|
B|--9~~~----9~~~--9~~~-----------------9~~~---9~~~---9~~~--------------------|
G|--10~~----10~~--10~~---10~~---9~~~---10~~---10~~---10~~---9~~~-------------|
D|--10~~----10~~--10~~---11~~---10~~---10~~---10~~---10~~---10~~-------------|
A|--8~~~----8~~~--8~~~---11~~---10~~---8~~~---8~~~---8~~~---10~~-------------|
E|-----------------------9~~~---8~~~------------------------8~~~---8-6-4-3---|

Verse

e|-----------------------|
B|-----------------------|
G|----10---10---10---10--|
D|----10---10---10---10--|x2
A|--8---------8----------|
E|-------8---------8-----|

e|---------------------------------------------------------------|
B|---------------------------------------------------------------|
G|----10---10---10---10------------------------------------------|
D|----10---10---10---10---11---11---11---11---10---10---10---10--|(to below)
A|--8---------8-----------11---11---11---11---10---10---10---10--|
E|-------8---------8----9----9----9----9----8----8----8----8-----|
  "Little girl..."

                            Second time end on:
e|-----------------------|      |------|
B|-----------------------|      |------|
G|----10---10---10---10--|      |--10--| (At second to last strum. Listen
D|----10---10---10---10--|x2    |--10--|  to the song if you need to)
A|--8---------8----------|      |--8---|
E|-------8---------8-----|      |------|

Chorus

e|----------------------------------------------------------------------|
B|----------------------------------------------------------------------|
G|-------------------6-6-6-6-6-6-6-6--5-5-5-5-5-5-5-5-------------------|
D|--3-3-3-3-3-3-3-3--6-6-6-6-6-6-6-6--5-5-5-5-5-5-5-5--3-3-3-3-3-3-3-3--|x2
A|--3-3-3-3-3-3-3-3--4-4-4-4-4-4-4-4--3-3-3-3-3-3-3-3--3-3-3-3-3-3-3-3--|
E|--1-1-1-1-1-1-1-1------------------------------------1-1-1-1-1-1-1-1--|
  "Run away..."

  Second time end:
e|--------------------------------------|
B|--------------------------------------|
G|--5-5-5-5-5-5-5-5-5-5-5-5-5-----------|
D|--5-5-5-5-5-5-5-5-5-5-5-5-5-----------|
A|--3-3-3-3-3-3-3-3-3-3-3-3-3-----------|
E|-----------------------------8-6-4-3--|
 "Is no place.."           "Got no place..."

Verse 2
 A)                          B) (Listen to song if need be)
e|-----------------------|   |------------------------------|
B|-----------------------|   |------------------------------|
G|----10---10---10---10--|   |--10-10---10------------------|
D|----10---10---10---10--|x2 |--10-10---10---11--11--11-11--|(to below)
A|--8---------8----------|   |--8--8----8----11--11--11-11--|
E|-------8---------8-----|   |---------------9---9---9--9---|
                              "Little girl..."


e|-------------------------------------------|
B|-------------------------------------------|
G|------------------------10---10---10---10--| Repeat Verse 1 until
D|----10---10---10---10---10---10---10---10--| "..Heart of treason"
A|----10---10---10---10-8---------8----------| Then repeat Verse 2 B)
E|--8----8----8----8---------8---------8-----|
  "The charlatans..."
"...Just a junkie..."


During the last line of this verse ("You're just a junkie..."), there is
an overdub which sounds something like this:
 
e|-------------------|
B|-------------------|
G|-------------------|
D|---------15---10\--| Into Chorus. 
A|-----8/11-----10\--|
E|--8~----------8\---|

Second Chorus ending is the same except for the last part, which
changes to:

e|-------------------------------------------|
B|-------------------------------------------|
G|--5-5-5-5----------------------------------|
D|--5-5-5-5-3-3-3-3-3-3-3-3-3-3-3-3-3-3-3-3--|
A|--3-3-3-3-3-3-3-3-3-3-3-3-3-3-3-3-3-3-3-3--|
E|----------1-1-1-1-1-1-1-1-1-1-1-1-1-1-1-1--|
"...Got no place to go"

Bridge

e|-----------------------------------|   |-------------------|
B|-----------------------------------|   |-------------------|
G|--6-6-6-6-6-6-6-6------------------|   |--5-5-5-5-5-5-5-5--|
D|--6-6-6-6-6-6-6-6-6-6-6-6-6-6-6-6--|x3 |--5-5-5-5-5-5-5-5--|x2
A|--4-4-4-4-4-4-4-4-6-6-6-6-6-6-6-6--|   |--3-3-3-3-3-3-3-3--|
E|------------------4-4-4-4-4-4-4-4--|   |-------------------|
"The traces of blood..."                "So unholy..."

Solo
(This is the part I'm not so sure about)

 A)
e|-------------------|   |-------------------|
B|-------------------|   |-------------------|
G|-------------------|   |--6-6-6-6-5-5-5-5--|
D|--3-3-3-3-3-3-3-3--|x3 |--6-6-6-6-5-5-5-5--| (All) x2
A|--3-3-3-3-3-3-3-3--|   |--4-4-4-4-3-3-3-3--|
E|--1-1-1-1-1-1-1-1--|   |-------------------|
"...of grace"

 B)
e|---------------------------------------------------------------------------|
B|----------13-11------------12-13-11-------------13-11----11-11-------------|
G|-10-10-13------13-10-10-13----------13-10-10-13-------13-------12-12h13-10-|
D|---------------------------------------------------------------------------|x3
A|---------------------------------------------------------------------------|
E|---------------------------------------------------------------------------|

e|---------------------------------------------------------------------------|
B|-----------13-11-------------12-13-11-------------13-11----13-13-17-17-18~~|
G|--10-10-13-------13-10-10-13----------13-10-10-13-------13-----------------|
D|---------------------------------------------------------------------------|
A|---------------------------------------------------------------------------|
E|---------------------------------------------------------------------------|

Chorus

Ending

e|-----------|   |-----------|
B|-----------|   |-----------|
G|--5-5-5-5--|   |-----------|
D|--5-5-5-5--|x3 |-----------|
A|--3-3-3-3--|   |-----------|
E|-----------|   |--8-6-4-3--|
"There is..."

| /  slide up
| \  slide down
| h  hammer-on
| p  pull-off
| ~  vibrato
| +  harmonic
| x  Mute note
===============================================================================
Suggest correction
What's this?
You can suggest a correction to this tab. Community and Mods will review your correction and vote to approve or reject it.
comments
We did not receive enough feedback on this tab! Please rate:
print report bad tab
1 2 3 4 5
guest
You may want to rate the tab now too:
select rating
Please do not post tabs as comments. Select "correction" instead!