Oops, an error
Loading. Please wait.

Viva La Gloria Tab

version 3
version 3
54,341 views 54 this week
1 commentread comment
1 2 3 4 5
accurate
x 4
add to favorites
launch autoscroll
font size
0
reset
how to read this tab
guitar tuner
Autoscroll
slow
fast
+/-
esc
set tempo
stop
Help us to improve Ultimate-Guitar.com Take our survey!
×
Author
Capo
4th fret
Green Day - !Viva La Gloria!
Cover by Leigh Bucknall)


You can listen to the song here:
http://www.youtube.com/watch?v=LQSGY6hFEd0

Review by Maxim. The intro might be wrong, the rest almost right.


Capo on 4th fret

Intro:
C - Em - F - C

C          Em
  Hey Gloria
        F                     G         C
Are you standing close to the edge?
               Em              F
Lookout to the setting sun
                  G          C
The brink of your vision
        Em
Eternal youth is
  F                G         C
A landscape of the lie
                 Em               F
The cracks of my skin can prove
                  G          C
As the years will testify
                     Em           F
Say your prayers and light a fire
                       G     C
We're going to start a war
               Em            F
Your slogans a gun for hire
             G               C
It's what we waited for
         Em
Hey Gloria,
        F                G      C
This is why we're on the edge
                 Em
The fight of our lives been drawn to
     F       C
This undying love.


Chorus:  “Gloria…”
|--------------------------------------------------------------------------------|
|--------------------------------------------------------------------------------|
|-9-9-9-9-9—9-9-9----------------------------6-6-6-6-6-6-6-6---------------------|
|-9-9-9-9-9-9-9-9-------6-6-6-6-6-6-6-6------6-6-6-6-6-6-6-6-----7-7-7-7-7-7-7-7-|
|-7-7-7-7-7-7-7-7-------6-6-6-6-6-6-6-6------4-4-4-4-4-4-4-4-----7-7-7-7-7-7-7-7-|
|-----------------------4-4-4-4-4-4-4-4--------------------------5-5-5-5-5-5-5-5-|

----------------------------------------------------------------------------------|
----------------------------------------------------------------------------------|
----------------------------4-4--6-6—6-6------------------------------------------|
7-7-7-7-7-7-7-7-7-7-7--2-2--4-4--6-6-6-6---7-7-7-7-7-7-7-7-7---9-9-9-9-9-9-9-9-9--|
7-7-7-7-7-7-7-7-7-7-7--2-2--2-2--4-4-4-4---7-7-7-7-7-7-7-7-7---9-9-9-9-9-9-9-9-9--|
5-5-5-5-5-5-5-5-5-5-5--0-0-----------------5-5-5-5-5-5-5-5-5---7-7-7-7-7-7-7-7-7--|

(2X)

Verse:
|--------------------------------------------------------|
|--------------------------------------------------------|
|------------------------------6-6-6-6-6-6-6-6-6-6-6-6---|
|--2-2-2-2-2-2---6-6-6-6-6-6---6-6-6-6-6-6-6-6-6-6-6-6---|
|--2-2-2-2-2-2---6-6-6-6-6-6---4-4-4-4-4-4-4-4-4-4-4-4---|
|--0-0-0-0-0-0---4-4-4-4-4-4-----------------------------|

----------------------------------------------------------|
----------------------------------------------------------|
------------------------------4-4-4-4-4-4-4-4-4-4-4-4-----|
------------------------------4-4-4-4-4-4-4-4-4-4-4-4-----|
--7-7-7-7-7-7---2-2-2-2-2-2---2-2-2-2-2-2-2-2-2-2-2-2-----|
--5-5-5-5-5-5---0-0-0-0-0-0-------------------------------|    (2x)


Brigde:
|----------------------------------|
|----------------------------------|
|----------------------------------|
|---7-7-7~~9-9-9-9-9-9-9-9-9-------|
|---7-7-7~~9-9-9-9-9-9-9-9-9-------|
|---5-5-5~~7-7-7-7-7-7-7-7-7-------|


Chorus:   “Gloria…”
|--------------------------------------------------------------------------------|
|--------------------------------------------------------------------------------|
|-9-9-9-9-9—9-9-9----------------------------6-6-6-6-6-6-6-6---------------------|
|-9-9-9-9-9-9-9-9-------6-6-6-6-6-6-6-6------6-6-6-6-6-6-6-6-----7-7-7-7-7-7-7-7-|
|-7-7-7-7-7-7-7-7-------6-6-6-6-6-6-6-6------4-4-4-4-4-4-4-4-----7-7-7-7-7-7-7-7-|
|-----------------------4-4-4-4-4-4-4-4--------------------------5-5-5-5-5-5-5-5-|


----------------------------------------------------------------------------------|
----------------------------------------------------------------------------------|
----------------------------4-4--6-6—6-6------------------------------------------|
7-7-7-7-7-7-7-7-7-7-7--2-2--4-4--6-6-6-6---7-7-7-7-7-7-7-7-7---9-9-9-9-9-9-9-9-9--|
7-7-7-7-7-7-7-7-7-7-7--2-2--2-2--4-4-4-4---7-7-7-7-7-7-7-7-7---9-9-9-9-9-9-9-9-9--|
5-5-5-5-5-5-5-5-5-5-5--0-0-----------------5-5-5-5-5-5-5-5-5---7-7-7-7-7-7-7-7-7--|

(2X)


Outro:
|-------------------------------------------|-------------------|
|-------------------------------------------|-------------------|
|-------------------------------------------|-------------------|
|--7---2---7---2---7---2---9-9-9------------|---14-14-14-14-----|
|--7---2---7---2---7---2---9-9-9------------|---14-14-14-14-----|
|--5---0---5---0---5---0---7-7-7----- (2x)  |---12-12-12-12-----|
Suggest correction
What's this?
You can suggest a correction to this tab. Community and Mods will review your correction and vote to approve or reject it.
comments
print report bad tab
1 comment total.
0 reply
reizig 2,165 wrote on May 8 2009, 10:28 pm

For the intro: Screw the Capo shit, it's a piano part.

I think the CHORDS are

(Hey, Gloria...)
E G#m A E
E G#m A B

(Say your prayers...)
C#m G#m A E E/D#
C#m G#m A B

(Hey, Gloria...)
E G#m A E
E G#m A E

guest
You may want to rate the tab now too:
select rating
Please do not post tabs as comments. Select "correction" instead!