Oops, an error
Loading. Please wait.

Viva La Gloria Tab

version 3
version 3

Interactive

Video

55,907 views 45 this week
1 commentread comment
1 2 3 4 5
x 4
add to favorites
launch autoscroll
font size
0
reset
how to read this tab
guitar tuner
×
Best way to learn
"Viva La Gloria"
Autoscroll
slow
fast
+/-
esc
set tempo
stop
Author
Capo
  follow
4th fret
Green Day - !Viva La Gloria!
Cover by Leigh Bucknall)
You can listen to the song here:
http://www.youtube.com/watch?v=LQSGY6hFEd0
Review by Maxim. The intro might be wrong, the rest almost right.

Capo on 4th fret

[Intro]
C Em F C

C          Em
  Hey Gloria
        F                     G         C
Are you standing close to the edge?
               Em              F
Lookout to the setting sun
                  G          C
The brink of your vision
        Em
Eternal youth is
  F                G         C
A landscape of the lie
                 Em               F
The cracks of my skin can prove
                  G          C
As the years will testify
                     Em           F
Say your prayers and light a fire
                       G     C
We're going to start a war
               Em            F
Your slogans a gun for hire
             G               C
It's what we waited for
         Em
Hey Gloria,
        F                G      C
This is why we're on the edge
                 Em
The fight of our lives been drawn to
     F       C
This undying love.

[Chorus] “Gloria…”
e|--------------------------------------------------------------------------------|
B|--------------------------------------------------------------------------------|
G|-9-9-9-9-9—9-9-9----------------------------6-6-6-6-6-6-6-6---------------------|
D|-9-9-9-9-9-9-9-9-------6-6-6-6-6-6-6-6------6-6-6-6-6-6-6-6-----7-7-7-7-7-7-7-7-|
A|-7-7-7-7-7-7-7-7-------6-6-6-6-6-6-6-6------4-4-4-4-4-4-4-4-----7-7-7-7-7-7-7-7-|
E|-----------------------4-4-4-4-4-4-4-4--------------------------5-5-5-5-5-5-5-5-|

e|----------------------------------------------------------------------------------|
B|----------------------------------------------------------------------------------|
G|----------------------------4-4--6-6—6-6------------------------------------------|
D|7-7-7-7-7-7-7-7-7-7-7--2-2--4-4--6-6-6-6---7-7-7-7-7-7-7-7-7---9-9-9-9-9-9-9-9-9--|
A|7-7-7-7-7-7-7-7-7-7-7--2-2--2-2--4-4-4-4---7-7-7-7-7-7-7-7-7---9-9-9-9-9-9-9-9-9--|
E|5-5-5-5-5-5-5-5-5-5-5--0-0-----------------5-5-5-5-5-5-5-5-5---7-7-7-7-7-7-7-7-7--|(2X)

[Verse]
e|--------------------------------------------------------|
B|--------------------------------------------------------|
G|------------------------------6-6-6-6-6-6-6-6-6-6-6-6---|
D|--2-2-2-2-2-2---6-6-6-6-6-6---6-6-6-6-6-6-6-6-6-6-6-6---|
A|--2-2-2-2-2-2---6-6-6-6-6-6---4-4-4-4-4-4-4-4-4-4-4-4---|
E|--0-0-0-0-0-0---4-4-4-4-4-4-----------------------------|

e|----------------------------------------------------------|
B|----------------------------------------------------------|
G|------------------------------4-4-4-4-4-4-4-4-4-4-4-4-----|
D|------------------------------4-4-4-4-4-4-4-4-4-4-4-4-----|
A|--7-7-7-7-7-7---2-2-2-2-2-2---2-2-2-2-2-2-2-2-2-2-2-2-----|
E|--5-5-5-5-5-5---0-0-0-0-0-0-------------------------------|(2x)

[Brigde]
e|----------------------------------|
B|----------------------------------|
G|----------------------------------|
D|---7-7-7~~9-9-9-9-9-9-9-9-9-------|
A|---7-7-7~~9-9-9-9-9-9-9-9-9-------|
E|---5-5-5~~7-7-7-7-7-7-7-7-7-------|

[Chorus]“Gloria…”
e|--------------------------------------------------------------------------------|
B|--------------------------------------------------------------------------------|
G|-9-9-9-9-9—9-9-9----------------------------6-6-6-6-6-6-6-6---------------------|
D|-9-9-9-9-9-9-9-9-------6-6-6-6-6-6-6-6------6-6-6-6-6-6-6-6-----7-7-7-7-7-7-7-7-|
A|-7-7-7-7-7-7-7-7-------6-6-6-6-6-6-6-6------4-4-4-4-4-4-4-4-----7-7-7-7-7-7-7-7-|
E|-----------------------4-4-4-4-4-4-4-4--------------------------5-5-5-5-5-5-5-5-|

e|----------------------------------------------------------------------------------|
B|----------------------------------------------------------------------------------|
G|----------------------------4-4--6-6—6-6------------------------------------------|
D|7-7-7-7-7-7-7-7-7-7-7--2-2--4-4--6-6-6-6---7-7-7-7-7-7-7-7-7---9-9-9-9-9-9-9-9-9--|
A|7-7-7-7-7-7-7-7-7-7-7--2-2--2-2--4-4-4-4---7-7-7-7-7-7-7-7-7---9-9-9-9-9-9-9-9-9--|
E|5-5-5-5-5-5-5-5-5-5-5--0-0-----------------5-5-5-5-5-5-5-5-5---7-7-7-7-7-7-7-7-7--|(2X)

[Outro]
e|-------------------------------------------|-------------------|
B|-------------------------------------------|-------------------|
G|-------------------------------------------|-------------------|
D|--7---2---7---2---7---2---9-9-9------------|---14-14-14-14-----|
A|--7---2---7---2---7---2---9-9-9------------|---14-14-14-14-----|
E|--5---0---5---0---5---0---7-7-7----- (2x)  |---12-12-12-12-----|



************************************

| ~  Vibrato
| (  
| x) 
| — 

************************************
Suggest correction
comments
print report bad tab
1 comment total.
0 reply
reizig 223 May 08, 2009 06:28 PM

For the intro: Screw the Capo shit, it's a piano part.

I think the CHORDS are

(Hey, Gloria...)
E G#m A E
E G#m A B

(Say your prayers...)
C#m G#m A E E/D#
C#m G#m A B

(Hey, Gloria...)
E G#m A E
E G#m A E

guest
You may want to rate the tab now too:
select rating
Wanna post a correction for this tab? Suggest correction