Oops, an error
Loading. Please wait.

Viva La Gloria Tab

version 5
version 5
4,104 views 3 this week
1 commentread comment
1 2 3 4 5
please rate
add to favorites
launch autoscroll
font size
0
reset
how to read this tab
guitar tuner
Tab Pro tools
  • play this tab
  • loop segment
  • change instrument
  • show fretboard
  • metronome
×
Best way to learn
"Viva La Gloria"
Autoscroll
slow
fast
+/-
esc
set tempo
stop

                                                  ¡Viva la Gloria!    by green day

                 i have do the fig.1-fig.4 just by ear but i hope you enjoy it!

                  

         If it´s something wrong write to me : viktorrr-s@hotmail.com




fig.1
|--------------0--------------------------------------------------------------------------0---------|
|--------0--------0-----0---------------4------------------2-----2------------------0--------0-----0|
|-----------1--------1------------4--------4-----4------------2-----2-----2------------1--------1---|
|------------------------------------6--------6---------2--------------2----------------------------|
|-----2------------------------6---------------------0---------------------------2------------------|
|--0------------------------4-------------------------------------------------0---------------------|
 
fig.2                                     
|--------------0-----------------------------------------------------------------------------------|
|--------0--------0-----0---------------4------------------2-----2-----------------2---------------|
|-----------1--------1------------4--------4-----4------------2-----2-----2-----------------4------|
|------------------------------------6--------6---------2--------------2--------4-----4--------4---|
|-----2------------------------6---------------------0-----------------------2-----------2--------2|
|--0------------------------4----------------------------------------------------------------------|

  fig.3
|----------------------------------------------------------------------------------------0---------|
|--------4-----4------------------------4------------------2-----2-----------------0--------0-----0|
|-----------------6-----6---------4--------4-----4------------2-----2-----2-----------1--------1---|
|-----6-----6--------6---------------6--------6---------2--------------2---------------------------|
|--4---------------------------6---------------------0--------------------------2------------------|
|---------------------------4------------------------------------------------0---------------------|


fig.4
|---------------------------------------------------------------------------------------------------|
|--------4-----4------------------------4------------------2-----2------------------2---------------|
|-----------------6-----6---------4--------4-----4------------2-----2-----2------------------4------|
|-----6-----6--------6---------------6--------6---------2--------------2---------4-----4--------4---|
|--4---------------------------6---------------------0------------------------2-----------2--------2|
|---------------------------4-----------------------------------------------------------------------|

1. fig.1
2. fig.2
3. fig.1
4. fig.2
5. fig.3
6. fig.4
7. fig.1
8. fig.1
9. countinue with- the chords     



 

      

      E             g#
fig.1  Hey Gloria
               A                               E
     Are you standing close to the edge?
      E                      g#
fig.2 Lookout to the setting sun
      A                           B  
     The brink of your vision
      E          g#
fig.1 Eternal youth is
      A                        E
     A landscape of the lie
      E                           g#
fig.2 The cracks of my skin can prove
      A                         B
     As the years will testify



      c#                               g#
fig.3 Say your prayers and light a fire
      A                                 E
     We're going to start a war
      c#                      g#
fig.4 Your slogans a gun for hire
      A                  B
     It's what we waited for



      E             g#
fig.1 Hey Gloria,
                 A                         E
     This is why we're on the edge
      E                        g#
fig.1 The fight of our lives been drawn to
      A                   E
     This undying love.



      E                        g#
fig.9  Gloria, Viva La Gloria
      c#
     You blast your name
               A
      In graffiti on the walls
      A
     Falling through broken glass that's
      E            B                    c#
     Slashing through your spirit
      A                                    B
     I can hear it like a jilted crowd



      E                                  g#
     Gloria, where are you Gloria
      c#                 
     You found a home
                       A
     In all your scars and ammunition
     A                                            E
You made your bed in salad days
      B                   c#
     Amongst the ruin
      A                                 B
     Ashes to ashes of our youth




      E                         g#                   c#
     She smashed her knuckles into winter
      A                 E                       B
     As autumns wind fades into black
      E              g#                     c#
     She is the saint on all the sinners
      A                    E                           B
     The one that's fallen through the cracks
      A                                   B
     So don't put away your burning light



       E                                 g#
      Gloria, where are you Gloria
      c#
     Don't lose your faith
             A
     To your lost naivete
      A
     Weather the storm and don't look
      E           B          c#
     Back on last November
      A                                                    B
     When your banners were burning down



      E                      g#
     Gloria, viva la Gloria
      c#
     Send me your amnesty down
      A
     To the broken hearted
      A
     Bring us the season
              E          B        c#
      That we always will remember
      A                                     B
     Don't let the bonfires go out


     
         A     E
     So Gloria,
     A                    E
    Send out your message of t
       A                    E                     B
     The light that shadows in the night.
      A     E
     Gloria, 
      A                    E
     where's your undying love?
      A                 E                   B
     Tell me the story of your life

comments
We did not receive enough feedback on this tab! Please rate:
print report bad tab
1 2 3 4 5
1 comment total.
0 reply
Saroz wrote on September 7 2010, 04:23 am

its no G# its G#m

I want to post or [tab]
guest
You may want to rate the tab now too:
select rating
Please do not post tabs as comments. Select "correction" instead!