Oops, an error
Loading. Please wait.

Viva La Gloria Tab

version 7
version 7
4,496 views 3 this week
1 commentread comment
1 2 3 4 5
x 3
add to favorites
launch autoscroll
font size
0
reset
how to read this tab
guitar tuner
Autoscroll
slow
fast
+/-
esc
set tempo
stop
Help us to improve Ultimate-Guitar.com Take our survey!
×
Author
Difficulty
novice
Viva La Gloria!
Green Day
21st Century Breakdown


Intro:
  E           Abm             A         E   
e|-----------|---------------|-----------|----------------|
B|---0-------|---------4-----|---5-------|-------0--------|
G|-1-------1-|-------4-----4-|-6-------6-|-----1---1------|
D|-2-----2---|-----6-----6---|-------7---|---2---------2--|
A|-----2-----|---6-----------|-----7-----|-2---------2----|
E|-----------|-4-------------|-----------|----------------|


Verse 1:
  E           Abm             A           E   
e|-----------|---------------|-----------|----------------|
B|---0-------|---------4-----|---5-------|-------0--------|
G|-1-------1-|-------4-----4-|-6-------6-|-----1---1------|
D|-2-----2---|-----6-----6---|-------7---|---2---------2--|
A|-----2-----|---6-----------|-----7-----|-2---------2----|
E|-----------|-4-------------|-----------|----------------|
1.Hey Gloria, are you standing close to the edge?
2.Eternal youth is the landscape of the lie.


  E           Abm             A           B
e|-----------|---------------|-----------|----------------|
B|---0-------|---------4-----|---5-------|-------7--------|
G|-1-------1-|-------4-----4-|-6-------6-|-----8---8------|
D|-2-----2---|-----6-----6---|-------7---|---9---------9--|
A|-----2-----|---6-----------|-----7-----|-9---------9----|
E|-----------|-4-------------|-----------|----------------|
1.Look out to the setting sun. The brink of your vision.
2.The cracks of my skin can prove, as the years will testify
  
*(For stanza 2, repeat from the beginning of verse 1, then continue)


  Dbm             Abm             A           E         Abm
e|---------------|---------------|-----------|---------|---------|
B|-------5-------|---------------|---5-------|-------0-|---------|
G|-----6---6-----|-------4-------|-6-------6-|-----1---|-------4-|
D|---6---------6-|-----6---6-----|-------7---|---2-----|-----6---|
A|-4---------4---|---6---------6-|-----7-----|-2-------|---6-----|
E|---------------|-4---------4---|-----------|---------|-4-------|
  Say your prayers and light a fire; we're going to start a war.


  Dbm             Abm             A           B
e|---------------|---------------|-----------|----------------|
B|-------5-------|---------------|---5-------|----------------|
G|-----6---6-----|-------4-------|-6-------6-|--9-------------|
D|---6---------6-|-----6---6-----|-------7---|--9-------------|
A|-4---------4---|---6---------6-|-----7-----|--7-------------|
E|---------------|-4---------4---|-----------|--7-------------|
  Your slogan's a gun for hire; it's what we waited for.


  E           Abm             A           E   
e|-----------|---------------|-----------|----------------|
B|---0-------|---------4-----|---5-------|-------0--------|
G|-1-------1-|-------4-----4-|-6-------6-|-----1---1------|
D|-2-----2---|-----6-----6---|-------7---|---2---------2--|
A|-----2-----|---6-----------|-----7-----|-2---------2----|
E|-----------|-4-------------|-----------|----------------|
  Hey Gloria! This is why we're on the edge.
  

  E           Abm             A           E
e|-----------|---------------|-----------|-----------0-4-7-|
B|---0-------|---------4-----|---5-------|---------0-------|
G|-1-------1-|-------4-----4-|-6-------6-|-------1---------|
D|-2-----2---|-----6-----6---|-------7---|-2---2-----------|
A|-----2-----|---6-----------|-----7-----|---2-------------|
E|-----------|-4-------------|-----------|-----------------|
  The fight of our lives' been drawn to this undying love.


Chorus:
E               Abm
Gloria! Viva La Gloria!
Dbm                         A
You blast your name in graffiti on the walls.
A                                   E        B            Dbm
Falling through broken glass that's slashing through your spirit.
A                         B
I can hear it like a jilted crowd.
E                     Abm
Gloria! Where are you Gloria?
Dbm                          A
You found a home in all your scars and ammunition.
A                          D      B         Dbm
You made your bed in salad days amongst the ruins.
A                     B
Ashes to ashes of our youth.


Verse 2:
E               B             Dbm
She smashed her knuckles into winter (Gloria)
A           E               B
as autumn's wind fades into black.
E          B                Dbm
She is the saint of all the sinners. (Gloria)
A              E                  B
The one that's fallen through the cracks.
         A             B
So don't put away your burning light.


Chorus:
E                     Abm
Gloria! Where are you Gloria?
Dbm                      A           
Don't lose your faith to your lost naivete.
A                                E       B    Dbm
Weather the storm and don't look back on last November
A                              B
when your banners were burning down.
E               Abm
Gloria! Viva La Gloria!
Dbm                       A
Send me your amnesty down to the broken hearted.
A                           E      B    Dbm
Bring us the season that we always will remember.
A                         B
Don't let the bonfires go out.


Outtro:
   A    E
So Gloria
A             E         A               E              B
Send out your message of the light that shadows in the night
A    E A               E
Gloria where's your undying love?
A           E             B
Tell me the story of your life ...
     E
Your life!
Suggest correction
Give kudos to tab author, rate the tab!
1 2 3 4 5
comments
print report bad tab
1 comment total.
0 reply
daiiroby 10 Feb 19, 2015 07:27 AM

this is so ****in awesome tab!

guest
You may want to rate the tab now too:
select rating
Wanna post a correction for this tab? Suggest correction