Oops, an error
Loading. Please wait.
We have an official Waiting tab made by UG professional guitarists. Check out the tab »
×
1,024 views 3 this week
6 commentsread comments
1 2 3 4 5
x 4
add to favorites
×
Save as Personal and add changes to this tab that will be seen only by you. Learn more ›
×
You can save this tab as Personal to edit and correct it or add notes. All changes will be seen only by you. Learn more »
launch autoscroll
font size
0
reset
how to read this tab
guitar tuner
backing track
0:00
0:00
edit
Autoscroll
slow
fast
+/-
esc
set tempo
stop
Intro (clean or light distortion)
E----------------------------------
B----------666666----------666666--
G--555555--666666--777777--666666--
D--666666--666666--888888--666666--X2
A--666666--444444--888888--444444--
E--444444----------666666----------

Verse 1 (heavier distortion until further notice)
E-------------------------------
B-------------------------------
G---------666666--------666666--
D--666666-666666-888888-666666--X4
A--666666-444444-888888-444444--
E--444444--------666666---------

Chorus 1
E----------------------------------------------
B----------------------------------------------
G--------------------------------666-----666---
D--333333-222222-888888-66666666-666-666-666---
A--333333-222222-888888-66666666-444-666-444---
E--111111-000000-666666-44444444-----444-------

Verse 2
E-------------------------------
B-------------------------------
G---------666666--------666666--
D--666666-666666-888888-666666--X4
A--666666-444444-888888-444444--
E--444444--------666666---------

Chorus 2
E--------------------------------
B--------------------------------
G--------------------------------
D-333333-222222-888888-66666666--
A-333333-222222-888888-66666666--
E-111111-000000-666666-44444444--

Interlude
E--------------------------
B--------------------------
G--666-----666-----6---6---
D--666-666-666-666-6-6-6-6-X3
A--444-666-444-666-4-6-4-6-
E------444-----444---4---4-

E------------------------
B------------------------
G--666----------66666666--
D--666-666-6666-66666666--
A--444-666-6666-44444444--
E------444-4444--------------

Solo
E--------------------------------------------------------
B-2-----------2-------------------------3-6-3------------
G--5-3-5-6-5-3-5-3-5-6-5-3-5-1-3-5-6-5-3-3-3-3-3-1-1-1-1-
D--------------------------------------------------------
A--------------------------------------------------------
E--------------------------------------------------------

Chorus 3
E------------------------
B------------------------
G------------------------
D-333333-222222-888888-6-
A-333333-222222-888888-6-
E-111111-000000-666666-4-

E-------------------------
B-------------------------
G-666-----666-----6---6---
D-666-666-666-666-6-6-6-6-X3
A-444-666-444-666-4-6-4-6-
E-----444-----444---4---4-

E-----------------------
B-----------------------
G--666---------66666666-
D--666-666-666-66666666-
A--444-666-666-44444444-
E------444-444----------

Verse 3 (clean or light distortion)
E-------------------------------
B---------666666--------666666--
G--555555-666666-777777-666666--
D--666666-666666-888888-666666--X3
A--666666-444444-888888-444444--
E--444444--------666666---------

Verse 4 (heavier distortion until end)
E-------------------------------
B-------------------------------
G---------666666--------666666--
D--666666-666666-888888-666666--X4
A--666666-444444-888888-444444--
E--444444--------666666---------

Outro
E------------------------
B------------------------
G--------666666--------6-
D-666666-666666-888888-6-
A-666666-444444-888888-4-
E-444444--------666666---

            
            
Suggest correction
Creating personal tab
Creating personal tab
You can edit any tab online and save it as your Personal.

You can edit, replace or remove any tab part or add personal notes – all changes will be seen only by you.

Personal tabs can be accessed anytime from any device, even offline.
Learn more »
comments
print report bad tab
6 comments total. Showing first comments.
0 reply
Moscovich 10 Aug 31, 2003 08:00 PM

solo is
E--------------------------------------
B--85-35653-85-35653-5--356533---------
G---------------------6-------46-------D--------------------------------------A--------------------------------------E--------------------------------------
sorry sort of sloppy

0 reply
Moscovich 10 Aug 31, 2003 08:00 PM

solo is
E--------------------------------------
B--85-35653-85-35653-5--356533---------
G---------------------6-------46-------
sorry sort of sloppy

0 reply
Moscovich 10 Aug 31, 2003 08:00 PM

solo is
E--------------------------------------
B--85-35653-85-35653-5--356533---------
G---------------------6-------46-------
D--------------------------------------
A--------------------------------------
E--------------------------------------

sorry sort of sloppy

guest
Wanna post a correction for this tab? Suggest correction